Nós Vogamos Nesta Nau

Harpa Cristã

 Harpa Cristã
Tom: 
		

E|---------5----5-|-7-5---0-5----5-|-7-5---0-5---10-|-9----7--5---4-|
B|---------7----7-|-8-7-7-8-7----7-|-8-7-7-8-7---7--|---------2---3-|
G|--------------7-|-7---7--------7-|-7---7----------|-9----7--2---4-|
D|---------7------|-----7---7------|-----7---7---7--|-7-------2---2-|
A|---------5----5-|-5---5---5----5-|-5---5---5------|-0----9--------|
E|----------------|----------------|-------------10-|------10-------|



E|-5-------5----5-|-7-5---0-5----5-|-7-5---0-5---10-|-9----7--5---4-|
B|-2-------7----7-|-8-7-7-8-7----7-|-8-7-7-8-7---5--|---------2---3-|
G|-2------------7-|-7---7--------7-|-7---7----------|-9----7--2---4-|
D|---------7------|-----7---7------|-----7---7---7--|-7----0--2---2-|
A|-0-------5----5-|-5---5---5----5-|-5---5---5---5--|-0----9--------|
E|----------------|----------------|----------------|---------------|



E|-5-------0------|-0-----0-----5-|-7---5---0------|-0-----0-----5-|
B|-2-------2----7-|-8---7---7---7-|-8---7--------7-|-8---7---7---7-|
G|-2-------2----7-|-----7-6-7---7-|-7---7---6----7-|-----7-6-7---7-|
D|--------------7-|-7---7---7-----|-5-------7----7-|-7---7---7-----|
A|-0-------0----0-|-0---0---5---5-|-----5---4----0-|-0---0---5---5-|
E|----------------|---------------|----------------|---------------|



E|-7---5-----------|----------------|----------------|-----5---7------|
B|-8---7---15---15-|-15--15--15--10-|-12--10-------7-|-8---7---8---10-|
G|-7-------11---11-|-11--11--11--11-|-12--11--9----7-|-9-------0---11-|
D|-5-------0----0--|-0---0---0---12-|-12--12--11---7-|-7---7-------7--|
A|-----5---12---12-|-12--12--12-----|-10------12---0-|-0---0---0---0--|
E|-----------------|-------------10-|-----10--9------|----------------|



E|-----------------|----------------|-----------------|-----12--10--9-|
B|-10--7---15---15-|-15--15--15--10-|-12--10--10---10-|-12--0---7-----|
G|-11--7---11---11-|-11--11--11--11-|-12--11--11---11-|-12--12------9-|
D|-7-------0----0--|-0---0---0---12-|-12--12--12---12-|-9-------7---7-|
A|---------12---12-|-12--12--12-----|-10--------------|-10----------0-|
E|-10--------------|-------------10-|-----10--10---10-|-----12--------|



E|-10-----------|
B|-7------------|
G|--------------|
D|-7------------|
A|--------------|
E|-10-----------|
188 exibições

Comentários 0

Consegui tocarAinda não conseguiram tocar essa música. Seja o primeiro!
    Não consegui tocar
    Exibir acordes »
    publicidade
    fechar