Novo Canto de Louvor

Harpa Cristã

 Harpa Cristã
Tom: 
		

E|---------------5-|-7---10--8---5-|-------------------|-0---0---8------|
B|-------------8-8-|-8---8---7---7-|-8-----------8--7--|-----8-------8--|
G|-------------0-5-|-7---0---7---5-|-7-----------7--7--|-0---0---0---0--|
D|-------------9-5-|-----9---0-----|-9-----------------|---------10--10-|
A|-----------------|-10----------5-|-10----------10-10-|---------7---7--|
E|-----------------|---------------|-------------7--7--|-8---8----------|



E|-7-------------5-|-7---10--8------|-0-----------0--0--|----------------|
B|-------------8-8-|-8---8---7---10-|-0-----------0--0--|-10------12--11-|
G|-7-----------0-5-|-7---0---7---11-|-12----------12-13-|-9---9---0---0--|
D|-------------9-5-|-----9---0---10-|----------------0--|---------11--11-|
A|-10--------------|-10-------------|-------------------|-12--12--0---0--|
E|-----------------|-------------11-|-12----------12----|-9---9----------|



E|---------10---|-10---10-9-10-12-10-|--------------|---------------10----|
B|-10-----------|-8----8--8-8--8--8--|-13-----------|-13---13-12-13-0--13-|
G|-----0---7----|-0----0--0-0--0--0--|-11-----------|-11---11-10-11-11-11-|
D|-10------7----|-9----9--8-9--10----|-0------------|-0----0--0--0--0--0--|
A|-9---7---9----|-----------------14-|-12-----------|-12---12-11-12----12-|
E|-10-----------|--------------------|--------------|---------------------|



E|--------------|-10---------------10-|-12----------0--0--|-----10---------|
B|-12-----------|-0----12-12-12-13-0--|----------------10-|-12--0---13--10-|
G|-0------------|-12---12-10-10-10-10-|-12----------12-12-|-12--12--11--11-|
D|-12-----------|------12-12-12-10----|-10----------11-11-|-12--12--12--10-|
A|--------------|-10---10-10-10-10-10-|-------------------|----------------|
E|--------------|---------------------|-------------------|---------10--10-|



E|--------------|
B|-0------------|
G|-12-----------|
D|-12-----------|
A|-10-----------|
E|--------------|
466 exibições

Comentários 0

Consegui tocarAinda não conseguiram tocar essa música. Seja o primeiro!
    Não consegui tocar
    Exibir acordes »
    publicidade
    fechar