O Evangelho da Salvação

Harpa Cristã

 Harpa Cristã
Tom: 
		

E|---------------------|-----11--6-----|------------8-6----|--------------|
B|-8---8---8-----8--9--|-11------8---8-|-6---8---9--9-8-9--|-8------------|
G|-8---8---8--10-8--10-|-12------8---8-|-7---8---10-----10-|-8------------|
D|-8---8---8--12-8--8--|-------------8-|-8---8---8--8-8-8--|-8------------|
A|------------11-10-8--|-13------6-----|-------------------|-6------------|
E|-11--11--11----------|-11------------|-6---6---6--6-6-6--|--------------|



E|-------------------|-----11--6-----|------------8-6----|-------------6-6-|
B|-8---8---8-6-8-----|-11------8---8-|-6---8---9--9-8-9--|-8-----------8-8-|
G|-8---8---8-7-8--13-|-12------8---8-|-7---8---10-----10-|-8-----------8-8-|
D|-8---8---8-6-8--8--|-8-----------8-|-8---8---8--8-8-8--|-8---------------|
A|-6---6---6---10-8--|---------6-----|-------------------|-6-----------6-6-|
E|-------------------|-11------------|-6---6---6--6-6-6--|-----------------|



E|-8---11------10-8--|-6---------------|-----8---6------|-------------6-6-|
B|-9---13------11-9--|-8---8-------8-8-|-6---9---8---9--|-8-----------8---|
G|-8---8-------8--8--|-8---8-------8-8-|-7-----------10-|-8-----------8-8-|
D|-------------------|-----8-------8-8-|-8---8---8---8--|-8---------------|
A|-11--11------11-11-|-6---6-------6-6-|----------------|-6-----------6-6-|
E|-------------------|-----------------|-6---6---6---6--|-----------------|



E|-8---11------10-8--|-----11----------|-----6----------|--------------|
B|-9---13------11-9--|-11------------6-|-8---8---9----6-|--------------|
G|-8---8-------8--8--|-12--12------8-8-|-8-------10---7-|-0------------|
D|-------------------|-13----------5-6-|-8---8---8----8-|-13-----------|
A|-11--11------11-11-|-----13------6-6-|-6---6----------|--------------|
E|-------------------|-11--11----------|---------6----6-|-11-----------|

Comentários 0

Consegui tocarAinda não conseguiram tocar essa música. Seja o primeiro!
    Não consegui tocar
    Exibir acordes »
    publicidade
    fechar