O Nascimento de Jesus

Harpa Cristã

 Harpa Cristã
Tom: G#
		

E|-------------|-4----6--4-3-|-6-------3-4-|-6-----------|-8-------8--9--|
B|---------4-4-|-4----4--4-4-|-4-------4-4-|-8-------6---|-4-------------|
G|---------5-5-|-5-----------|-0-------3-5-|-6----8--6-8-|---------8--8--|
D|---------6-6-|------5--6-6-|-------------|------10-8-5-|-6----------8--|
A|-------------|-----------3-|-6-------6-6-|-6----6--6-6-|---------11-11-|
E|---------4-4-|-4----4--4---|-------------|-------------|-4-------------|



E|-11---8--8--6-|---------------|-6-----------|-4----4--6-8-|
B|-9------------|-9-------8--9--|-8-------6-8-|-1----1------|
G|------8--8--8-|-10------8--8--|-8----8--6-6-|-1-------6-8-|
D|-10-----------|-6-------11-10-|------10-8-8-|-------------|
A|-11---11-11-6-|------------6--|-6----6--6-6-|-------------|
E|------------8-|-9-------11----|-------------|-4-----------|



E|-9---------------9-9-8-6-8----------------8--6-4-|
B|-6---------------6-6-----4----------------4------|
G|---------------------8-6---------------------6-5-|
D|-6---6-6--6--6-----------6---6-6--6--6-----------|
A|-------------------------------------------------|
E|-9---9-9--9--9-----------4---4-4--4--4-----------|



E|-6---------------6-6-4-3-4----------------4--6-8-|
B|-4---4-4--4--4-----------4---4-4--4--------------|
G|-6---------------6-6-5-3-------------5----5--6-8-|
D|-------------------------------------6-----------|
A|-6---6-6--6--6-----------6-----------------------|
E|-------------------------4---4-4--4--4-----------|



E|-9---------------9-9-8-6-8----------------8---9--|
B|-6---------------6-6-----4-----------------------|
G|---------------------8-6------------------8---8--|
D|-6---6-6--6--6-----------6---6-6--6--6--------8--|
A|------------------------------------------11--11-|
E|-9---9-9--9--9-----------4---4-4--4--4-----------|



E|-11-------9--8-----------4--------------------|
B|-9----------------11-----4--------------------|
G|----------10-8----8------5--------------------|
D|-10---------------11--------------------------|
A|-11-------11-11-------------------------------|
E|----------9--11---11-----4--------------------|

Comentários 0

Consegui tocarAinda não conseguiram tocar essa música. Seja o primeiro!
    Não consegui tocar
    Exibir acordes »
    publicidade
    fechar