Ó Vem, Senhor, e Habita

Harpa Cristã

 Harpa Cristã
Tom: 
		

E|---0-2-5-3-0-3-----2-----|-----2-5--6--7--------|---0-2-5-3-0-3-----2---0-|
B|-3-0-0-0-0-0-1-----1-----|-3--------------------|-3-0-0-0-0-0-1-----1---1-|
G|-4-0-0---0-0---2-2---2-2-|-5---5-5--6--7--------|-4-0-0---0-0---2-2---2-2-|
D|---0-0---0-0---0-0---0-0-|-4-----4-----5-0------|---0-0---0-0---0-0---0-0-|
A|-------------0-----0-----|-5-----5--------------|-------------0-----0-----|
E|-3-----3-----------------|-----------------7-3--|-3-----3-----------------|



E|-----2-5-----3--------|--------------------12--|-12-------12-10----------------|
B|-3--------3-----------|-15---15-13-10----------|----13-10-------12-0--------0--|
G|-5---5-5--5--4--------|-11---11-11-11-11---11--|-11-11-11-11-11-11-12-------7--|
D|-4-----0--------------|-0----0--0-----12---10--|-10-0--10-10-10-10-------------|
A|-5-----------5--------|-12---12-12-12-12-------|----12-------------10-------10-|
E|-------------3--------|------------10-10---10--|-10----10-10-10-10-------------|



E|------7---10-12---8---10-|-10-8--7--10-8-------------|
B|-8----8---0-------8---0--|-0--7--6--7----10-8--------|
G|-7----7---10-9--------12-|-11----------9-7--7--------|
D|-9-----------10---10--0--|-0--7--6--7--7-10-9--------|
A|-10---10--10-------------|-------------7-9--10-------|
E|-------------8----12-----|----10-10-10---------------|
279 exibições

Comentários 0

Consegui tocarAinda não conseguiram tocar essa música. Seja o primeiro!
    Não consegui tocar
    Exibir acordes »
    publicidade
    fechar