Obreiros do Senhor

Harpa Cristã

 Harpa Cristã
Tom: 
		

E|----------13-10-11-|-----13------10-|-1-------13-13-10-11-|-----13------13-|
B|----------15-11-13-|----------------|-----3------15-11-13-|----------------|
G|----------10-------|-----10------10-|-----3------10-------|-----10------10-|
D|-------------12-13-|-----8-------12-|-----3---12----12-13-|-----8-------8--|
A|-------------------|-1---8-------13-|-1-------13----------|-1---8-------8--|
E|-------------------|---------1---13-|---------13----------|---------1------|



E|------------13-11-13-|-5---8-------11-|-13-----11----13-10-10-|-12--15--12--15-|
B|-10------------------|----------------|-15-----13-11----------|-13------10--11-|
G|-10---------10----10-|-----8-------8--|-----------------------|-----12------9--|
D|-----13--13----13----|-3-------3------|-----12----12----12----|----------------|
A|-----12--12----------|-----12------8--|-----13----13----13----|-----13------13-|
E|-8---13--13----------|-1---13--1------|-----13----13----13----|-8-------8------|



E|-----13-11----------13-10-11-|-----13------13-|-1-15-13-15-13-13-10-11-|
B|-----------13-------15-11-13-|----------------|---------------15-11-13-|
G|--------------14-10-10-------|-----10------10-|---------------10-------|
D|-3---13----------13----12-13-|-----8-------8--|------12----12----12-13-|
A|-----12----------12----------|-1---8-------8--|-1----13----13----------|
E|-1---13----------13----------|---------1------|------13----13----------|



E|-----13------10-|----12-13-12-13-12-13-15-|---------8---10-|
B|----------------|-------0-----0-----------|-10--11------5--|
G|-----10------10-|-10----------13----10-12-|-----10------5--|
D|-----8-------12-|-------12----12-14-------|-----10------8--|
A|-1---8-------13-|-------11----11----------|-----12---------|
E|---------1---13-|-7-----13----------------|-8-------8------|



E|--------15-13----13----|-12--10--8---15-|-1-12-13-15-5-6-8-9-|-10--10------10-|
B|-13-----11-10-13-10-10-|-13--11--10--11-|--------------------|-6---6-------6--|
G|-----10----10----10----|-----9-------12-|---9--10-12---------|----------------|
D|-----10----10----------|----------------|-3----------0-------|-8---8-------8--|
A|-----12----12----------|-----13------13-|--------------------|----------------|
E|-----------------------|-8-------8------|-1----11--------8---|-6---6---1---6--|



E|-10---8------5-3-|-1---1---3-----|-------------1-5-8-|-11--11------11-|
B|-6-----------6-4-|-3---3---3---3-|-6-------4---------|-10--10------10-|
G|------8----------|-3---3---3---3-|-3-------5---------|----------------|
D|-8----8----------|---------------|-3-------3---------|-10--10------10-|
A|-----------------|-1---1---1---1-|-3-----------------|-8---8-------8--|
E|-6----6--1-------|---------1-----|---------1---------|-8-------1------|



E|-11---8------8-----|---------3---5-|-3-------1------6-8-|-10--10------10-|
B|-8----8------10-11-|-10--11--4---4-|-2-------3---10-----|-6---6-------6--|
G|----------------12-|-8---8-------2-|-3---3---3----------|----------------|
D|------8------------|-10--10--3---3-|---------3----------|-8---8-------8--|
A|-8----8------------|-8---8---------|-1------------------|----------------|
E|-8-------1---------|-8-------1-----|-------------6------|-6---6---1---6--|



E|-10---8------1----8-|-10--10------10-|-11---10-8-------8-|-6---6---6-5-6-8-|
B|-6-------------11---|-0---0-------0--|-8----8--8-----8---|-8---8-----------|
G|------8-------------|-10--10------10-|-------------8-----|-6---6-----------|
D|-8----8-------------|----------------|-10---9--10--------|-----------------|
A|--------------------|-10--10------10-|-------------------|-7---7-----------|
E|-6----6--1----------|-7-------3------|-8----10-11--------|-----------------|



E|-10--10--10----------|-13--11--10--8--|-6------------|
B|---------------11-13-|-10-------------|-3------------|
G|-10--10-----10-------|-----12--10--8--|-3------------|
D|-8---8---------------|-10--10---------|--------------|
A|-8---8---------------|---------12--12-|--------------|
E|---------------------|-13--13--13--13-|-6------------|
550 exibições

Comentários 0

Consegui tocarAinda não conseguiram tocar essa música. Seja o primeiro!
    Não consegui tocar
    Exibir acordes »
    publicidade
    fechar