Quem Derá Hoje Vir

Harpa Cristã

 Harpa Cristã
Tom: 
		

E|---------------------0-|-5-------0------------|-0---5---7---8-------5-|
B|-5---5---5---8---8---8-|-4-----------8--------|-8---5---5---5-------5-|
G|-5---5---5---5---5---0-|---------0---5--------|-5---5---5---0-------0-|
D|-5---5---5-------------|-4--------------------|-----------------------|
A|-------------7---7-----|-------------7--------|-----------------------|
E|-8---8---8---8---8---8-|-8-------8---8--------|-8---8---8---8-------8-|



E|-7--------------------|-------------5---5---5-|----------------------|
B|-6--------------------|-6---6---6---6---6---6-|-12------12--0--------|
G|-0--------------------|-7---7---7---0---0---0-|-10------10--10-------|
D|-0--------------------|-9---9---9---9---9---9-|-12------12--12-------|
A|----------------------|-10--10--10------------|-10------10--10-------|
E|----------------------|-----------------------|----------------------|



E|---------7---5-------7-|-0--------------------|-0---0---0-----------0--|
B|---------3---6-------6-|-8--------------------|-13--12--10--8---7---8--|
G|-------------0-------0-|-0--------------------|-0---0---0---9---8------|
D|---------5-------------|----------------------|-------------10------10-|
A|-----------------------|----------------------|------------------------|
E|-3---3---3---3-------3-|-8--------------------|-8---8---8---8-------8--|



E|-5-------0---0--------|-8---7---5---0----------|----------------------|
B|-5-----------8--------|-5---5---5---8---7---8--|-12------10--10-------|
G|-5-------0---5--------|-0---0---0-------8---9--|-12------10--10-------|
D|----------------------|-------------10------10-|-10------10--10-------|
A|----------------------|------------------------|----------------------|
E|-8-------8---8--------|-8---8---8---8-------8--|-13------13--13-------|



E|-10--10--10--8-------8-|-7-------5---0---------|-----0-----------------|
B|-------------8-------8-|-8-------6---8-------6-|-5---8---6---5-------3-|
G|-10--10--10--0-------5-|-5-------5---5-------7-|-5---0---7---5-------4-|
D|-----------------------|---------------------7-|-5-------5---5-------3-|
A|-14--12--11--7-------7-|-8-------8---8-------8-|-----------------------|
E|-10--10--10------------|-----------------------|-------------3-------3-|



E|----------------------|-8-----------7----------|-5-----------0---------|
B|----------------------|-----8---8-------8---8--|-----5---5-------------|
G|-0--------------------|-----9---9-------10--10-|-----5---5-------5---5-|
D|-10-------------------|-10----------9---12--12-|-7---------------7---7-|
A|-7--------------------|------------------------|-------------7---------|
E|-8--------------------|-8-----------7----------|-5-----------0---------|



E|-0---5---7---10------8-|----------------------|-7-----------10--7---7--|
B|-8---5---5---5-------5-|----------------------|-0---6---6-------8---8--|
G|-------------0-------0-|-7--------------------|-----7---7---7---10--10-|
D|-10--------------------|-7-------7---7--------|-------------0----------|
A|-----------------------|-8-------8---8--------|------------------------|
E|-8-----------8-------8-|----------------------|-7----------------------|



E|-1-----------5----------|-5---7---8---7-------5-|-0--------------------|
B|-----3---3-------7---7--|-6---6---6---6-------6-|----------------------|
G|-----4---4-------8---8--|-0-----------0-------0-|-0-------0---0--------|
D|-3-----------7---10--10-|-----------------------|-10-------------------|
A|------------------------|-----------------------|----------------------|
E|-1-----------5----------|-3-----------3-------3-|-8-------8---8--------|



E|-12----------10--------|-8-----------7---------|-5---4---5---7-------5-|
B|-8-----------0---------|-----------------------|-6---6---6---8-------6-|
G|-------------10--------|-9-----------7---------|-5-----------5-------5-|
D|-10------------------0-|-7-----------6---------|-----------------------|
A|---------10--10--------|-0-------7---7---------|-8-----------8-------8-|
E|-8---12----------7-----|-----8-------0---4---7-|-----------------------|



E|----------------------|-13--10--10--12---------|-10---------------------|
B|-5--------------------|-0---12--12------13--13-|-----10--10--10---------|
G|-5-------5---5--------|-12--0---0---12--0---0--|-10----------8---11--11-|
D|----------------------|-0-----------10---------|-----10--10--10--7---7--|
A|----------------------|------------------------|-12--12--12--9----------|
E|-8-------8---8--------|-------------12---------|-13---------------------|



E|-0---5---8---10------0--|-0--------------------|----------------------|
B|-8---5---5---0-------13-|-13-------------------|----------------------|
G|-0---5---5---10------0--|-0--------------------|----------------------|
D|-10--5---5--------------|----------------------|----------------------|
A|-------------10---------|----------------------|----------------------|
E|---------------------8--|-8--------------------|----------------------|

Comentários 0

Vish! - Cifra Club
Vish! Alguém pegou todas as nossas palhetas! Nossa equipe de gnomos está resolvendo o caso! Enquanto isso fique por dentro das novidades.

Enquanto isso, fique por dentro das novidades!

Facebook CifraClub
Erro 502:
Servidor temporariamente indisponível.
Tente acessar novamente em instantes.
Exibir acordes »
publicidade
fechar