Queres Perdão

Harpa Cristã

 Harpa Cristã
Tom: 
		

E|---------------------8-6-4--------|---------------------4-8-6--------|
B|-4-0-4-6-----4----4--4------------|-6-5-6-8-----6----4--4-4----------|
G|-5-7-5-6-----5----5----6-5--------|-6-6-6-8-----6----5------8--------|
D|-6-6-6-6-----6----6--6-5-6--------|-6-6-6-6-----6----6--6-6-5--------|
A|------------------6--6-6----------|-4-4-------------------6-6--------|
E|-4-4-4-4-----4-----------4--------|-----9-9-----9----4--8------------|



E|-8-7-8-------8----8--6------------|----9--8--8--------------8-----4--------|
B|-4---4-------4----4----9-6--------|-----------------11---------11----------|
G|---7-----------------8-8-6--------|-8--8--8--8------8----8--8--0--5--------|
D|-6-6-6-------6----6--6-6-6--------|-10-------------------------11-6--------|
A|----------------------------------|-11-10-11-11-----10---10-11-------------|
E|-4-4-4-4-----4----4--6-8-9--------|-11-11-11-11-----11---11-11-11-4--------|



E|---4-8--13-----11---8--6-------------|
B|-4-4-9--9------9----9--8-9-----------|
G|-5-5-8--------------8--6-8--8--------|
D|-6-6----11-----10------6-10-10-------|
A|-----11-11-----11---11---11-11-------|
E|-------------------------------------|



E|-----------------13--13-13-11-9--8--------|
B|----8--11-14-----8---8--8--9--11-9--------|
G|-8-----0--12------------------8--8--------|
D|-8--11-11-8------11--11-11-10-------------|
A|-10-13---------------------8--10-11-------|
E|----11-11-11-----11--11-11----------------|



E|-------8--13-----11----11-9-6----------|---8-8-8-----6-------8-----4--------|
B|----9--9--9------9---7-6--6-6-6--------|---6--------------------11-1--------|
G|-8--8--8---------------6--6-6-6--------|-8---8-8-----7----8--8--0--1--------|
D|-10-10----11-----10-----------8--------|-6-6-6-8-----6----11----11----------|
A|-11-11-11-11-----11--------------------|-6-6-6-8----------10-10-------------|
E|-----------------------9--9-9-9--------|-------------6----11-11-11-4--------|



E|----------------------------------|
B|----------------------------------|
G|----------------------------------|
D|----------------------------------|
A|----------------------------------|
E|----------------------------------|

Comentários 0

Consegui tocarAinda não conseguiram tocar essa música. Seja o primeiro!
    Não consegui tocar
    Exibir acordes »
    publicidade
    fechar