Sê Tu Meu Guia

Harpa Cristã

 Harpa Cristã
Tom: 
		

E|---------|--------|---8-6-4-|-4---3-|-6---3-4-|-6---8-|-----3---|-------|
B|-4---0-4-|-6----4-|-4-4-4-4-|-4---4-|-4---4-4-|-4---4-|-4-4-3-6-|-4-----|
G|-5---7-5-|-6----5-|-5-------|-5---3-|-0---3-5-|-------|-----3-7-|-----6-|
D|-6---6-6-|-6----6-|-6-6-6-6-|-------|---------|-5---6-|-5-5---6-|-5-----|
A|---------|--------|---------|-6---6-|-6---6-6-|-6-----|---------|-6-----|
E|-4---4-4-|-4----4-|-4-4-8-8-|-------|---------|-----4-|-6-6-6-6-|-------|



E|---------|--------|-4-8-11-9--|-8------|-11--9-8-|-----6-|------8-6-|-4----|
B|-4---0-4-|-6----4-|-4-4-------|-----11-|-------4-|-6---6-|-9--8-8-8-|------|
G|-5---7-5-|-6----5-|-----8--10-|-8---8--|-8---8---|-6---6-|-8--8-8-6-|-5----|
D|-6---6-6-|-6----6-|-6-6-------|--------|-----5-6-|-6-----|-10-8-----|------|
A|---------|--------|-----11-11-|-11--10-|-11------|-------|-6--6-6-6-|------|
E|-4---4-4-|-4----4-|-8-4-8--9--|-11--11-|-8---6-4-|-9---6-|----------|-4----|

279 exibições

Comentários 0

Consegui tocarAinda não conseguiram tocar essa música. Seja o primeiro!
    Não consegui tocar
    Exibir acordes »
    publicidade
    fechar