Seguir a Cristo

Harpa Cristã

 Harpa Cristã
Tom: 
		

E|------------------|-5-------0----|-0----0--0-0---0--|-5------------|
B|-6----6--6-6-5--6-|-6-------8----|-8----8--8-8-6-8--|-6------------|
G|-5----5--5-5-5--5-|-5-------5----|-5----5--5-5-5-0--|-5------------|
D|-7----7--7-7-8--7-|--------------|-----------8-7-10-|--------------|
A|-8----8--8---10-8-|--------------|------------------|-8------------|
E|------------------|-8-------8----|------------------|--------------|



E|-5----5--5-5-0----|-10------10---|-------8--0------0---|-1------------|
B|-6----6--6-6-8----|--------------|-13-10----11-3---1---|-1------------|
G|-5----5--5-5-0-10-|-10------10---|-10-10-10-0------0-3-|-2------------|
D|-------------8-10-|--------------|-10-10-------3-------|-3------------|
A|-8----8--8-8---12-|-13------13---|-12----12----3---3---|--------------|
E|------------------|--------------|----13-8--8----------|--------------|
215 exibições

Comentários 0

Consegui tocarAinda não conseguiram tocar essa música. Seja o primeiro!
    Não consegui tocar
    Exibir acordes »
    publicidade
    fechar