Sob o Sangue Teu

Harpa Cristã

 Harpa Cristã
Tom: 
		

E|------------------------------|------------------0-1-0--|
B|-------------8-10--10-10-8----|-10--13-13--------3-3-8--|
G|----------10---10--10-10---10-|-10--10--------10-0-2-5--|
D|-------------8-10--10-10-8----|-10-----10-----12-0-0----|
A|----------12---8---8--8----12-|-----12-12-----12--------|
E|----------13---------------13-|-13--13-13-----10-----8--|



E|-0----0--------------------------|------------------0---5----|
B|-8-6--8--10-----8-10--10-10-8----|-10--13-13--------0-6-6--8-|
G|-5-7-----10--10---10--10-10---10-|-10--10--------10-7-7-5--9-|
D|---10-10-10-----8-10--10-10-8----|-10-----10-----12-0-9----8-|
A|-------------12---8---8--8----12-|-----12-12-----14---5------|
E|-8-8--8--13--13---------------13-|-13--13-13-----10-----8--8-|



E|-------------8----------8--|-8-------------------0-------|
B|-------------10-11-10---10-|-10--11-11-----11-10------11-|
G|-10-------------12-10------|-----12-12-----12-10-12---12-|
D|-7-----------10-10-10---10-|-10--10-10-----10-10-10---10-|
A|-8-----------8--8--8----8--|-----------------------------|
E|---------------------------|-8---8--8------8--8--8----8--|



E|--------------------------------|-3-------------5-5-5--3-|
B|-11--10-10-----10--10-10--------|-3---3-3---------6-5--5-|
G|-12--10-10-----10--10-10--12-10-|-3---3-3-----5-5---5--3-|
D|-10--10-10-----10--10-10--10-10-|-----3-3-----7---7------|
A|-7------------------------13-12-|-------------8-8------3-|
E|-----13-13-----13--13-13-----13-|-6---6-6-----8-8-8-8----|



E|----------------------|
B|-6--------------------|
G|-5--------------------|
D|-7--------------------|
A|-8--------------------|
E|----------------------|
808 exibições

Comentários 0

Consegui tocarAinda não conseguiram tocar essa música. Seja o primeiro!
    Não consegui tocar
    Exibir acordes »
    publicidade
    fechar