Teu Nome Precioso

Harpa Cristã

 Harpa Cristã
Tom: 
		

E|---------5-6-|-5----3--6-3-|---------6-5-|-10---8--5---|-3-------5-6-|
B|---------6-6-|-6----5--5-5-|-6---5---5-6-|-6----6--6-6-|-5-------6-6-|
G|---------5-7-|-5----3--5-3-|-5---5---5-5-|---------5-5-|-5-------5---|
D|-------------|------5------|-7---5-------|-8----7----7-|---------3-3-|
A|---------8-8-|-8-------3-3-|-----------8-|------8--8-8-|-3---------5-|
E|-------------|-------------|-8---8---8---|-6-----------|-------------|



E|-5-------3-1-|-0-------------|---------------|-5-------5-5-|-10---10-8-0-|
B|-5----5--5-3-|-2---3-----3-5-|-6----6--8-6-8-|---------5-6-|-6----6--5-8-|
G|-2----2--2-2-|-2-------5-3-5-|-5----5--7---7-|-6-----------|---------0-5-|
D|---------0-0-|-----3---3---3-|-3----3------0-|---------7-7-|-8----8------|
A|-4----4------|-0-------0-----|-0----0--8-----|-7---------5-|-------------|
E|-------------|-----6-----6-6-|---------6---6-|-5-------9---|-6----6--8-8-|



E|-6---5----------|---------5-3-|----------|----------|
B|-8---6-----10-8-|-6----5--5-5-|-6--------|----------|
G|-5---5---7----7-|-5----5--5-3-|----------|----------|
D|---------8----8-|-7----5------|-7--------|----------|
A|-7---8----------|-----------3-|-8--------|----------|
E|---------6----6-|-8----8--8---|----------|----------|
241 exibições

Comentários 0

Consegui tocarAinda não conseguiram tocar essa música. Seja o primeiro!
    Não consegui tocar
    Exibir acordes »
    publicidade
    fechar