Vai Orando

Harpa Cristã

 Harpa Cristã
Tom: 
		

E|-7------|--------|-7------|--------|-----8-|-7---3-|-3---2-3-|-5----|-7---5-|
B|-8---10-|-8------|-8---10-|-8---0--|-5---5-|-3---3-|-2---1---|------|-3---3-|
G|-7---7--|-7---7--|-7---7--|-7---7--|-5-----|-----4-|-0---0---|-5----|-----5-|
D|-----10-|-9---9--|-----10-|-9------|-5---5-|-5-----|-2---2---|-0----|-5---5-|
A|-10--10-|-10--10-|-10--10-|-10--10-|-------|-------|---------|-9----|-------|
E|--------|--------|--------|--------|-8---8-|-3---3-|---------|------|-------|



E|-3-----|-7---5-|-3-----|-----8-|-7-----5-|-7---5-|-3----|-10--10-|-10-----|
B|-3---3-|-3---3-|-3---0-|-5---5-|-----8---|-------|-0----|-0------|-0---12-|
G|-4---4-|-----5-|-4---7-|-5-----|-7---6---|-7---5-|-0----|-12--11-|-12--12-|
D|-5---5-|-5---5-|-5---5-|-5---5-|-5---5---|-5---0-|------|-----10-|-12--12-|
A|-------|-------|-------|-------|-5---7---|-5---9-|------|-10--12-|-----10-|
E|-------|-------|-------|-8---8-|---------|-------|-3----|--------|--------|



E|--------|--------|-0---0--|-5---0-5-|-7---10-|-10---|-10--7--|--------|-7-----|
B|-10--12-|-0---0--|-0---0--|-7---8-7-|-8---8--|-8----|-8---8--|-10--8--|-----8-|
G|-11--11-|-12-----|-12--12-|-7---7---|-7---0--|------|-0---7--|-7---7--|-----0-|
D|-10--12-|-12--12-|--------|-----0---|-----9--|-7----|-9------|-10--9--|-9-----|
A|--------|-10--10-|-7---7--|-5-------|-10-----|------|-----10-|-10--10-|-------|
E|-10--10-|--------|--------|---------|--------|-10---|--------|--------|-------|



E|-0-----|-3---3-|-5---0----|-7---5-|-3----|------|
B|-----3-|-3---3-|-5---8-10-|---8-7-|-3----|------|
G|-------|-0---0-|-0---0----|-7---5-|-4----|------|
D|-----0-|-------|----------|-5-----|------|------|
A|-7-----|-------|----------|-5---5-|------|------|
E|-------|-7---7-|-8---8----|-------|-3----|------|

Comentários 1

Consegui tocarAinda não conseguiram tocar essa música. Seja o primeiro!
    Não consegui tocar
    Exibir acordes »
    publicidade
    fechar