Salém Cidades Das Bruxas

Harppia

 Harppia
Tom: C
		
 Intro;A
 

 --------------------------------
 --------------------------------
 --------------------------------
 --------------------------------
 -000333222----------------------
-----------31313------------------


Meados de 1692;
Trinta e quatro pessoas são executadas;
A acusação... feitiçaria;
Cidade... Salém....


---------------------------------
---------------------------------
---------------------------------
-7--7----575---7--7--------------
-7--7--57---7--7--7--------------
-5--5----------5--5--------------2x EF



A
Gatos, ratos, corvos e morcegos bancam os guardiães


---1--1--1--------------------
-11-11-11-11------------------
------------2-----------------
------------------------------
------------------------------

------------------------------ A
A
Enquanto inflama o tacho do sortilégio

---1--1--1--------------------
-11-11-11-11------------------
------------2-----------------
------------------------------
------------------------------

------------------------------ 
G
A magia negra corre à solta esta noite

-------------------------
-------------------------
-------------------------
--2--2--2--2-------------
---34-34-34-34-----------

------------------------- A

G
O que nessa cidade não é nenhum sacrilégio

------------------------
-------------------------
-------------------------
--2--2--2--2-------------
---34-34-34-34-----------

------------------------- A



---------------------------------
---------------------------------
---------------------------------
-7--7----575---7--7--------------
-7--7--57---7--7--7--------------
-5--5----------5--5--------------2x EF



-------------------------------  
-------------------------------
-------------------------------
-------------------------------
-------------------------------
-0000332223200001133-----------2x


Alto lá, guerreiros eternos
Que o mestre vos aguarda
Permaneçam pois, fiéis
Que de vós será o inferno

---------------------------------
---------------------------------
---------------------------------
-7--7----575---7--7--------------
-7--7--57---7--7--7--------------
-5--5----------5--5--------------2x EF oresto  é so repetir



REFRÃO
A     B            C
Salém, a cidade das bruxas
A     F            G
Salém, os domínios do inferno
A     B            C
Salém, a cidade das bruxas
A      F          G         Bb C
Salém, onde o mal é eterno
3.097 exibições

Comentários 2

  • vitor vitor: Postado em 17/03/2014 18:43

    oha isso ta errado cade o solo? e se vc consegue chegar da 11 corda B a 1 corda E em uma fração de segundo,vc é o q? um ninja ? ta estranho

    • HrqMonteiro HrqMonteiro: Postado em 06/08/2014 22:34

      exatamente, o cara que fez isso não sabe fazer cifra

Consegui tocarAinda não conseguiram tocar essa música. Seja o primeiro!
    Não consegui tocar
    Exibir acordes »
    publicidade
    fechar