Harry Potter

Harry Potter Theme

182.819 exibições
Tom: F

E|----0-3-2-0-7-5-2--0-3-2---1--------|
B|--0----------------------3--0-------|
G|------------------------------------|
D|------------------------------------|
A|------------------------------------|
E|------------------------------------|


E|----0-3-2-0-7-10-9-8--5-8-7-6-----0|
B|---0--------------------------7-8--|
G|-----------------------------------|
D|-----------------------------------|
A|-----------------------------------|
E|-----------------------------------|


E|---7--7--8-7-6-----7-6-2---7-----------|
B|-8--8--8-------7-8-------8-------------|
G|---------------------------------------|
D|---------------------------------------|
A|---------------------------------------|
E|---------------------------------------|


E|---7--7---10-9-8-5-8-7-6-----0--------|
B|-8--8---8----------------7-8----------|
G|--------------------------------------|
D|--------------------------------------|
A|--------------------------------------|
E|--------------------------------------|
    Sabe quem é o compositor? Envie pra gente.Colaboração e revisão:
    • Benjamin
    • Filha de Poseidon
    • Natacha
    • Junior
    • +18

    Comentários 31

    • Luan Luan: Postado em 16/05/2015 00:04

      otimo de tocar todo mundo te acha foda mas é facil

    • udud1998 udud1998: Postado em 21/06/2014 13:54

      Ta pela metade!

    • gabrielli.cruz.14 gabrielli.cruz.14: Postado em 09/06/2014 21:15

      eu mudei algumas coisas pra ficar melhor ;)

    • Vinicius Vinicius: Postado em 03/04/2014 18:18

      o que q ta errado???

    • bubuca bubuca: Postado em 16/01/2014 13:37

      tentem fazer as duas ultimas partes assim como eu faço .... tudo na com e - 7-10-7-11-7-12-11-10p7-10-9-8-7-5-3-0

    • ClaraPotter ClaraPotter: Postado em 22/11/2013 19:32

      É muito fácil mas tem muita coisa errada...

    • gabriel.maciente gabriel.maciente: Postado em 29/09/2013 12:16

      é facil mas tem coisa errada

    • Myllena Jackson Myllena Jackson: Postado em 15/09/2013 15:41

      Tem nada ai fora do ritmo, sou super fã de HP, toco isso ah tempos, e tá muuuito certo!!!

    • rafael.soares.31521 rafael.soares.31521: Postado em 27/08/2013 20:49

      O trecho "5-2-3-0" da última parte está errado

    • felipleo10 felipleo10: Postado em 11/07/2013 14:09

      FACIL DE MAIS

    Exibindo 10 de 31 comentários Mostrar mais ver todos »

    conseguiu tocar?

    • mian
    • sarah.carine2
    • tom.senna1
    • César
    • babi
    • Gabriel
    • MaxPolastri
    • •••
    Marcos Gabriel3.993 visualizações
      ver covers de outras músicas »
      0:00 / 0:00

      Capítulos

        2 versões de violãodificuldadeexibiçõescontribuição e correção
        2 versões de guitarradificuldadeexibiçõescontribuição e correção
        2 versões de cavacodificuldadeexibiçõescontribuição e correção
        2 versões de tecladodificuldadeexibiçõescontribuição e correção
        1 versão de Guitar Proformatodownloadscontribuição
        play/pausefechar subir/descer velocidade
        6ª corda E5ª corda A4ª corda D3ª corda G2ª corda B1ª corda E
          acordes
          publicidad
          fechar
          ok