Harry Potter Theme

Harry Potter

 Harry Potter
Tom: G
		

E|----0-3-2-0-7-5-2--0-3-2---2--------|
B|--0----------------------3--0-------|
G|------------------------------------|
D|------------------------------------|
A|------------------------------------|
E|------------------------------------|



E|----0-3-2-0-7-10-9-8--5-8-7-6-----0|
B|---0--------------------------7-8--|
G|-----------------------------------|
D|-----------------------------------|
A|-----------------------------------|
E|-----------------------------------|



E|---7--7--8-7-6-----7-6-2---7-----------|
B|-8--8--8-------7-8-------3-------------|
G|---------------------------------------|
D|---------------------------------------|
A|---------------------------------------|
E|---------------------------------------|



E|---7--7---10-9-8-5-8-7-6-----0--------|
B|-8--8---8----------------7-8----------|
G|--------------------------------------|
D|--------------------------------------|
A|--------------------------------------|
E|--------------------------------------|
Texto Colunas
Alterar tom ½ tom ½ tom
afinação acordes na letra esconder tabs mais »

Comentários (28)

  • Vinicius Vinicius: Postado em 03/04/2014 18:18

    o que q ta errado???

  • bubuca bubuca: Postado em 16/01/2014 13:37

    tentem fazer as duas ultimas partes assim como eu faço .... tudo na com e - 7-10-7-11-7-12-11-10p7-10-9-8-7-5-3-0

  • ClaraPotter ClaraPotter: Postado em 22/11/2013 19:32

    É muito fácil mas tem muita coisa errada...

  • gabriel.maciente gabriel.maciente: Postado em 29/09/2013 12:16

    é facil mas tem coisa errada

  • Myllena Jackson Myllena Jackson: Postado em 15/09/2013 15:41

    Tem nada ai fora do ritmo, sou super fã de HP, toco isso ah tempos, e tá muuuito certo!!!

  • rafael.soares.31521 rafael.soares.31521: Postado em 27/08/2013 20:49

    O trecho "5-2-3-0" da última parte está errado

  • felipleo10 felipleo10: Postado em 11/07/2013 14:09

    FACIL DE MAIS

  • Marcella Marcella : Postado em 26/06/2013 21:40

    eu sou fã d hp fanaaatica, e soh acho q as duas ultimas partes estão meio fora d tom... u.U"

  • flasmt flasmt: Postado em 31/05/2013 15:15

    ameeeei

  • Marianna Marianna: Postado em 28/05/2013 14:47

    achei fácil

Exibindo 10 de 28 comentários Mostrar mais ver todos »
Composição: Sabe quem é o compositor? Envie pra gente. Contribuição: jamesjohny Correções: Lara , Carol e mais 18 »
  1. Tudo Que Você Quiser - Luan Santana Manteve-se 4.514 exibições
  2. Lepo Lepo - Psirico Manteve-se 3.281 exibições
  3. Mozão - Lucas Lucco Manteve-se 3.136 exibições
  4. Logo Eu - Jorge e Mateus Manteve-se 2.803 exibições
  5. Gaveta - Fernando e Sorocaba Manteve-se 2.540 exibições
  6. Só Os Loucos Sabem - Charlie Brown Jr. Manteve-se 2.267 exibições
  7. Tempo Perdido - Legião Urbana Manteve-se 1.851 exibições
  8. Pra Você - Onze:20 Manteve-se 1.724 exibições
  9. Na Linha do Tempo - Victor e Leo Manteve-se 1.653 exibições
  10. Só Hoje - Jota Quest Manteve-se 1.617 exibições
  1. Jorge e Mateus- Manteve-se 16.646 exibições
  2. Legião Urbana- Manteve-se 15.215 exibições
  3. Luan Santana- Manteve-se 13.486 exibições
  4. Charlie Brown Jr.- Manteve-se 13.299 exibições
  5. Fernandinho- Manteve-se 11.513 exibições
  6. Aline Barros- Manteve-se 8.513 exibições
  7. Católicas- Manteve-se 8.423 exibições
  8. Thalles Roberto- Manteve-se 8.387 exibições
  9. Victor e Leo- Manteve-se 8.156 exibições
  10. Bruno e Marrone- Manteve-se 7.928 exibições
Exibir acordes »

Cifras e tabs

Fórum Cifra Club

Aprenda

Cifra Club News

Mais Serviços Cifra Club ID

Studio Sol

©1996 - 2014 Cifra Club · o primeiro, maior e mais acessado do Brasil · 329 mil músicas · 5.9 milhões pessoas cadastradas

publicidade
fechar