Harry Potter

Harry Potter Theme

217.724 exibições
Tom: C

E|----0-3p2-0-7-5-2--0-3p2---1-0------|
B|--0----------------------4----------|
G|------------------------------------|
D|------------------------------------|
A|------------------------------------|
E|------------------------------------|


E|---0-3p2-0-7-10-9-8--5-8-7-6-----0-|
B|-0--------------------------7-7/8--|
G|-----------------------------------|
D|-----------------------------------|
A|-----------------------------------|
E|-----------------------------------|


E|--7-7-8--7-6------7-6-----7--------|
B|-8-8-8------7-7/8-------5----------
G|----------------------4------------|
D|-----------------------------------|
A|-----------------------------------|
E|-----------------------------------|


E|--7--7--10-9-8---8-7-6-------0-----|
B|-8--8-8--------9--------7-7/8------|
G|-----------------------------------|
D|-----------------------------------|
A|-----------------------------------|
E|-----------------------------------|
    Sabe quem é o compositor? Envie pra gente.Colaboração e revisão:
    • kaique.cruz.980
    • Benjamin
    • Filha de Poseidon
    • Natacha
    • +20

    Comentários 34

    140 .
    • Luan Luan: Em 30/10/2015 19:30

      oq eh 10p7?????

      • giga10 giga10: Em 20/11/2015 19:29

        logo que vc bater a 10 não para vai direto para a 7

    • Gustavo Gustavo: Em 21/10/2015 11:52

      Gente alguem sabe onde tem a cifra completa ?

    • Luan Luan: Em 16/05/2015 00:04

      otimo de tocar todo mundo te acha foda mas é facil

    • udud1998 udud1998: Em 21/06/2014 13:54

      Ta pela metade!

    • gabrielli.cruz.14 gabrielli.cruz.14: Em 09/06/2014 21:15

      eu mudei algumas coisas pra ficar melhor ;)

    • Vinicius Vinicius: Em 03/04/2014 18:18

      o que q ta errado???

    • bubuca bubuca: Em 16/01/2014 13:37

      tentem fazer as duas ultimas partes assim como eu faço .... tudo na com e - 7-10-7-11-7-12-11-10p7-10-9-8-7-5-3-0

    • ClaraPotter ClaraPotter: Em 22/11/2013 19:32

      É muito fácil mas tem muita coisa errada...

    • gabriel.maciente gabriel.maciente: Em 29/09/2013 12:16

      é facil mas tem coisa errada

    140 cancelar

    conseguiu tocar?

    • Gabriel Reis
    • Gabriela
    • Gustavo
    • Gustavo
    • Pedro
    • Maria Clara
    • Manoel
    • •••
    Marcos Gabriel4.270 visualizações
      ver covers de outras músicas »
      0:00 / 0:00

      Capítulos

        2 versões de violão dificuldade exibições contribuição e correção
        2 versões de guitarra dificuldade exibições contribuição e correção
        2 versões de teclado dificuldade exibições contribuição e correção
        1 versão de Guitar Proformatodownloadscontribuição
        play/pausefechar subir/descer velocidade
        6ª corda E5ª corda A4ª corda D3ª corda G2ª corda B1ª corda E
          acordes
          publicidad
          fechar
          ok