Tema I

Harry Potter

 Harry Potter
Tom: 
		

E|---0--3--2--0--7--5---2-|---0--3--2----0----|
B|-0----------------------|-0----------3---0--|
G|------------------------|------------2------|
D|---2--------2--5--5---2-|---2---------------|
A|-2----------------------|-2--------------2--|
E|------------------------|-------------------|



E|---0--3--2--0---7--10--9--8--5-8-7--5-----3-0~~---|
B|-0-------------------------------------0-----~~---|
G|---------------------------------------------~~---|
D|---2--------2---7--8------0----6-------------~~---|
A|-2-------------------------------------2----0~~---|
E|---------------------------------------------~~---|
Texto Colunas
Alterar tom ½ tom ½ tom
afinação acordes na letra esconder tabs mais »
32.898 exibições

Comentários (1)

  • kunhadrianus kunhadrianus: Postado em 13/01/2013 12:28

    eu fiz um ajuste, q pra mim fica melhor, q foi: em vez de na ultima nota vc tocar a corda E e A soltas, eu toco as duas E's soltas.

  1. Tudo Que Você Quiser - Luan Santana Manteve-se 5.990 exibições
  2. Lepo Lepo - Psirico Manteve-se 4.438 exibições
  3. Mozão - Lucas Lucco Manteve-se 4.146 exibições
  4. Logo Eu - Jorge e Mateus Manteve-se 3.992 exibições
  5. Pra Você - Onze:20 Manteve-se 3.594 exibições
  6. Gaveta - Fernando e Sorocaba Manteve-se 3.572 exibições
  7. Só Os Loucos Sabem - Charlie Brown Jr. Manteve-se 3.053 exibições
  8. Fui Fiel - Gusttavo Lima Manteve-se 2.616 exibições
  9. Tempo Perdido - Legião Urbana Manteve-se 2.603 exibições
  10. Na Linha do Tempo - Victor e Leo Manteve-se 2.151 exibições
  1. Jorge e Mateus- Manteve-se 23.713 exibições
  2. Legião Urbana- Manteve-se 20.945 exibições
  3. Luan Santana- Manteve-se 17.298 exibições
  4. Charlie Brown Jr.- Manteve-se 17.152 exibições
  5. Fernandinho- Manteve-se 14.628 exibições
  6. Thalles Roberto- Manteve-se 11.183 exibições
  7. Católicas- Manteve-se 11.175 exibições
  8. Gusttavo Lima- Manteve-se 10.712 exibições
  9. Victor e Leo- Manteve-se 10.599 exibições
  10. Aline Barros- Manteve-se 10.088 exibições
Exibir acordes »

Cifras e tabs

Fórum Cifra Club

Aprenda

Cifra Club News

Mais Serviços Cifra Club ID

Studio Sol

©1996 - 2014 Cifra Club · o primeiro, maior e mais acessado do Brasil · 329 mil músicas · 5.9 milhões pessoas cadastradas

publicidade
fechar