Deus Meu

Heloísa Rosa

 Heloísa Rosa
Tom: C(acordes na forma do tom G)
Capotraste na 5ª casa		
Intro 4x: Am9  G


E|-----------------------------------------------------------------------|
B|-----------------------------------------------------------------------|
G|--7-9-7----------------7---------7--9-7-------------------------7------|
D|---------10---7-7--10-----------------------10-----5-5----10-----------|
A|-----------------------------------------------------------------------|
E|-----------------------------------------------------------------------|



E|-----------------------------------------------------------------------|
B|-----------------------------------------------------------------------|
G|--7-9-7----------------7---------7--9-7-------------------------7------|
D|---------10---7-7--10-----------------------10-----5-5----10------10---|
A|-----------------------------------------------------------------------|
E|-----------------------------------------------------------------------|


   Am9            G
Envia tua luz, tua verdade oh Deus
Am9           G
Para que me guiem
Am9              G
Leva-me ao teu santo monte
Am9               G      G D/F# Em
E aos teus tabernaculos

Em     D     C      D
Eu irei ao altar de Deus
Em          Bm          C         D
De Deus que é a minha grande alegria
Em         D      C        D
Ao som da harpa eu te adorarei
Em      Bm        C   D
Pois tu és o meu Deus

G      G/B       C            D   G
Porque estás abatida oh minh'alma
  G/B               C      D
E te perturbas dentro de mim
G         G/B  C           D         G
Espera em Deus, pois ainda o louvarei
   G/B         C      D
Ele é o meu auxilio e
       Am  G         Am  G
Deus meu...          Deus meu...

 Am9            G
Envia tua luz, tua verdade oh Deus
Am9           G
Para que me guiem
Am9              G
Leva-me ao teu santo monte
Am9               G      G D/F# Em
E aos teus tabernaculos

Em     D     C      D
Eu irei ao altar de Deus
Em          Bm          C         D
De Deus que é a minha grande alegria
Em         D      C        D
Ao som da harpa eu te adorarei
Em      Bm        C   D
Pois tu és o meu Deus

G      G/B       C            D   G
Porque estás abatida oh minh'alma
  G/B               C      D
E te perturbas dentro de mim
G         G/B  C           D         G
Espera em Deus, pois ainda o louvarei
   G/B         C      D
Ele é o meu auxilio e
   Em  Bm C D         Em  Bm C D
Deus meu         Deus meu

      Em                 Bm
Ele é o meu auxilio e Deus meu
            C             D
Ele é o meu auxilio e Deus meu   (4x)
12.559 exibições

Comentários 0

Composição: Heloísa Rosa
Esse não é o compositor? Avise-nos.
Contribuição: weslley Correções: Ygor Azambuja e mais 1 »
Consegui tocarAinda não conseguiram tocar essa música. Seja o primeiro!
    Não consegui tocar
    Exibir acordes »
    publicidade
    fechar