Que Deus Proteja

Henrique Cerqueira

 Henrique Cerqueira
Tom: D
		
Intro: G7+ D9 Em7


E|-------------------------------------------------------------------
B|-------------------------------------------7~~~--------------------
G|------7-9--------------7-9--------------7-9------------------------
D|--7h9-----7~~~ -----7h9----7~~~ ----7h9----------------------------
A|-------------------------------------------------------------------
E|-------------------------------------------------------------------



E|-------------------------------------------------------------------
B|-------------------------------------------------------------------
G|------7-9------------7-9-------------------------------------------
D|--7h9-----7~ ~---7h9-----7~~---7h9---7-5-7-7/9---------------------
A|-------------------------------------------------------------------
E|-------------------------------------------------------------------


G7+
 Antes de qualquer cerimônia
          Em7
 Ele sempre aparecia como uma flor
D9
 Ela sempre escrevia cartas
           G7+
 Falando de amor

G7+
 Quanta coisa descobri
                       Em7
 Segredos a desvendar... criança
D9  *Dedilhado
 A rotina de sonhar
D9  *Dedilhado    G7+
 A rotina de viver juntinho
G7+
 E quantos pares vivendo só
Em7                      D9
 Todo mundo quer alguém e quase ninguém
Em7
 Sabe da arte de viver com outro
   D9         A9           Em       F#7/11          D9
 Só sobreviver, sobreviver, sobreviver, sobreviver só

   G7+                 Em7
 Ah meu amor! Que Deus proteja
   G7+                Em7
 O nosso amor que é dom riqueza
   G7+                 Em7
 Ah meu amor! Que a gente invente
   G7+              Em7
 O nosso amor bem diferente

Solo : Base G7+ Em7 G7+ Em7


E|------10-12-------------10-12---------------10-12-14~~-------------
B|-10h12------10~~---10h12------10~~----10h12------------------------
G|-------------------------------------------------------------------
D|-------------------------------------------------------------------
A|-------------------------------------------------------------------
E|-------------------------------------------------------------------



E|-14-12-------------------------------------------------------------
B|------14-12h13--10h12-12/13----1212---1010---88--77-5-7-7/8--------
G|-------------------------------------------------------------------
D|-------------------------------------------------------------------
A|-------------------------------------------------------------------
E|-------------------------------------------------------------------



E|-------------------------------------------------------------------
B|-8-7----------7-8-8/10--10h12--10--8--10-10/12---------------------
G|-----9-7--7-9------------------------------------------------------
D|-------------------------------------------------------------------
A|-------------------------------------------------------------------
E|-------------------------------------------------------------------


G7+
 Quantos pares vivendo só
Em7                      D9
 Todo mundo quer alguém e quase ninguém
Em7
 Sabe da arte de viver com outro
   D9           A9          Em       F#7/11          D9 *Dedilhado
 Só sobreviver, sobreviver, sobreviver, sobreviver só
 G7+                    Em7
 Ah meu amor! Que Deus proteja
 G7+                  Em7
 O nosso amor que é dom riqueza
 G7+                  Em7
 Ah meu amor! Que a gente invente
 G7+      D9          Em7
 O nosso amor bem diferente



E|-------------------------------------------------------------------
B|------------7-8--------------------7-8-----------------------------
G|------7--9-------7/9----------7--9---------------------------------
D|--7h9---------------------7h9--------------------------------------
A|-------------------------------------------------------------------
E|-------------------------------------------------------------------
3.065 exibições

Comentários 2

  • meelk. meelk.: Postado em 21/12/2012 15:14

    Se vc conseguir tocar da um up!

  • melkkelm melkkelm: Postado em 18/12/2012 13:41

    Essa cifra é dar versão tocada no novo Cd do Henrique Cerqueira Deus é Romântico.
    pra ver o video com a musica na versão da cifra

Exibir acordes »
publicidade
fechar