Top do Verão

Henrique e Diego

 Henrique e Diego Compositor: Sorocaba
Tom: A
		

Intro 2x: A  Bm  D
E|-7/9--5--5---7/9--5-6/7----|
B|---------------------------|
G|-7/9--6--6---7/9--6-6/7----|
D|---------------------------|
A|---------------------------|
E|---------------------------|


A                  E
Tá me dando suador e calafrio
     F#m                    D
Se ela chega perto dá um arrepio
A       E        F#m           D          A
É amor  é paixão  é a top das top do verão

E|---------------------------|
B|---------------------------|
G|---------------------------|
D|------------4-6-7----------|
A|-----4-5-7-----------------|
E|-5-7-----------------------|


A          E      F#m
 Ela é top  é filé
               D               A
Todo mundo tá querendo essa mulher
               E             F#m
É a gata mais linda do verão
                 D
A mulher que dominou meu coração
A           E
Ela envolve  ela é quente
F#m           D
To ficando maluco inconsequente
A             E
Me segura se não faço besteira
F#m               D
 Grudo nessa sua boca a noite inteira
Bm        D         A       E
Onde ela chega ela vira atração
Bm               D               E
Quando dança fica louca e vai deçendo até o chão

Chão  chão  chão  chão  chão vai

A               E           F#m
Tá me dando suador e calafrio
                   D
Se ela chega perto dá um arrepio
A      E         F#m           D
É amor  é paixão  é a top das top do verão vai (2x)
80.088 exibições

Comentários 0

Composição: Sorocaba
Esse não é o compositor? Avise-nos.
Contribuição: stefanicampos Correções: dumkee , geovanni.. e mais 3 »
Exibir acordes »
publicidade
fechar