Pantera Cor-de-rosa

Henry Mancini

 Henry Mancini
Tom: G
Afinação: Eb Ab Db Gb Bb Eb
		
Intro:

E|-------------------------------------|
B|-------------------------------------|
G|-------------------------------------|
D|-------------------------------------|
A|-4-5-6-7-----7----------6-5-4-3-------|
E|-------0---7--------------------3/8--|


Frase 1:

E|-------------------------------------|
B|-------------------------------------|
G|---------------------5-4------4-3----|
D|---------4-5-----4-5-----4-5---------|
A|-4-5-6-7-----6-7---------------------|
E|-------------------------------------|


Frase 2:

E|-------------------------------------|
B|-----------------------------5-4-----|
G|----------------------5-4------------|
D|---------4-5-----4-5-----4-5---------|
A|-4-5-6-7-----6-7---------------------|
E|-------------------------------------|


Frase 3:

E|-------------------------------------|
B|-------------------------------------|
G|---------------------5-4------4-3----|
D|---------4-5-----4-5-----4-5---------|
A|-4-5-6-7-----6-7---------------------|
E|-------------------------------------|


Frase 4:

E|-------------------------------------|
B|--5-3-0------------------------------|
G|--------3-2-0-4-4-4-4----------------|
D|----------------------2-0-2-2--------|
A|-------------------------------------|
E|-------------------------------------|
Texto Colunas
Alterar tom ½ tom ½ tom
afinação acordes na letra esconder tabs mais »

Comentários 8

  • Guilherme Guilherme: Postado em 24/09/2013 15:49

    tem um jeito bem mais fácil essa musica no youtube, no canal MrFlashMusicStar

  • nyyxstyle nyyxstyle: Postado em 20/11/2012 14:47

    LOL eu pensava q era dificil ;P

  • bruna..gomes bruna..gomes: Postado em 05/08/2012 19:00

    opa!' consegui kkk' facinho

  • jhonx jhonx: Postado em 16/05/2012 21:29

    eu não consigo entender em qual casas estão as cifras alguém pode me explicar?

    • NOB-NO NOB-NO: Postado em 05/08/2012 12:08

      Cara é fácil de ler tablatura tipo assim os números indicam em que casa você tem que apertar .

    • anacast anacast: Postado em 11/08/2012 15:28

      Tem uma video aula do cifraclub explicando, olha lá

    • ty58708zxc ty58708zxc: Postado em 14/12/2012 15:09

      o numero 4 é na quarta casa o cinco na quinta casa e assim in diante

  • bruno13 bruno13: Postado em 29/04/2011 21:03

    kkkkkkkkkkkk Q faciul é legalzinha até :)

Composição: Sabe quem é o compositor? Envie pra gente. Contribuição: Joauml Correções: Bruno_Souza25 , m1599 e mais 3 »
502 Bad Gateway

502 Bad Gateway


nginx
Exibir acordes »

Cifras e tabs

Fórum Cifra Club

Aprenda

Cifra Club News

Mais Serviços Cifra Club ID

Studio Sol

©1996 - 2014 Cifra Club · o primeiro, maior e mais acessado do Brasil · 342 mil músicas · 6.4 milhões pessoas cadastradas

publicidade
fechar