Eu Me Rendo (I Surrender)

Hillsong Brasil

 Hillsong Brasil Compositor: Matt Crocker
Tom: F(acordes na forma do tom C)
Capotraste na 5ª casa		
Intro: Am  C  G  F   


     Am
E|-------------------------------|
B|----6-6-----6-6-----6-6-5-3----|
G|-2-------2-------2----------5--|
D|-------------------------------|
A|-------------------------------|
E|-------------------------------|



   C
E|-------------------------------|
B|----6-6-----6-6-----6-6-5-3----|
G|-2-------2-------2----------5--|
D|-------------------------------|
A|-------------------------------|
E|-------------------------------|



     G
E|-------------------------------|
B|----6-6-----6-6-----6-6-5-3----|
G|----------------------------5--|
D|--5------5------5--------------|
A|-------------------------------|
E|-------------------------------|



     F
E|-------------------------------|
B|----6-6-----6-6-----6-6-5-3----|
G|-3-------3-------3----------5--|
D|-------------------------------|
A|-------------------------------|
E|-------------------------------|


Am
Eis-me aqui
           C
Prostado outra vez
             G
Pra tudo entregar
       F
Pra tudo entregar

Am
Leva-me
            C
Perto de Ti, Senhor
              G
Anseio por ti
 F
Anseio por ti

Intro: Am  C  G  F

Am
Enche-me
             C
Da graça e do Teu amor
             G
Sacia meu ser
   F
Sacia meu ser

Am
Abraça-me
           C
Ouve o meu clamor
            G
Fala pra mim
  F
Fala pra mim

Refrão

  Am
Eu me rendo
  C
Eu me rendo
          Dm
Pra conhecer-te Mais
          F
Pra conhecer-te Mais

Ponte: F  C  G  Dm  Am  G

       F      C
Vento de poder
      G
Sopra em meu viver
               Dm
Faz teu querer
               Am      G
Faz teu querer, em mim

       F     C
Como um vendaval
     G
Muda o que sou
               Dm
Faz teu querer
               Am      G
Faz teu querer, em mim
17.590 exibições

Comentários 0

Composição: Sabe quem é o compositor? Envie pra gente. Contribuição: kekemm Correções: Gabriel , kekemm e mais 5 »
Exibir acordes »
publicidade
fechar