Do Meu Interior

Hillsong United

 Hillsong United
Tom: C
		
(intro 2x) F    C  G


E|------------12--------12------------------------
B|-------13----------13----13-15-12---------------
G|-12h14---14-----12----------------12------------
D|------------------------------------------------
A|------------------------------------------------
E|------------------------------------------------


          F              C          G
Mil vezez eu falhei, mas Tu foste Fiel,
          F                C         G
Tua graça me levantou, me basta seu amor.
      Am          F               C     G
Deus eterno, tua luz, pra sempre, brilhará
       Am         F         C      G
E tua glória excede tudo o que há

 (passagem 2x) F C G

E|------------12--------12------------------------
B|-------13----------13----13-15-12---------------
G|-12h14---14-----12----------------12------------
D|------------------------------------------------
A|------------------------------------------------
E|------------------------------------------------


(parte 2)
         F             C     G
Tua vontade , Senhor, será o meu prazer
            F
em ti quero me perder
   C     G
em adoração
      Am          F               C     G
Deus eterno, tua luz, pra sempre, brilhará
       Am         F         C      G
E tua glória excede tudo o que há

F           C                Am
Do meu coração, controle te dou;
             G              F
Te rendo todo meu louvor,
             C
Justiça e amor,
                 G
Me abraçam, Senhor;
              Dm
Te amo com tudo que sou.

(passagem repete parte 2)

      Am          F               C     G
Deus eterno, tua luz, pra sempre, brilhará
       Am         F         C      G
E tua glória excede tudo o que há
      C          F      G
Meu clamor subirá até Ti;
   Am         F
Ouça-me, Senhor,
    G        F      G
Louvamos a Ti em amor.

(solo) F C Am G F Am G Dm


E|-----------------------------------------------------------------------------------------------------|
B|-13-13-13-13-13-13-13-13--13-13-13-13-13-13-13-13--17-17-17-17-17-17-17-17--18-18-18-18-18-18-18-18--|
G|-14-14-14-14-14-14-14-14--12-12-12-12-12-12-12-12--17-17-17-17-17-17-17-17--17-17-17-17-17-17-17-17--|
D|-----------------------------------------------------------------------------------------------------|
A|-----------------------------------------------------------------------------------------------------|
E|-----------------------------------------------------------------------------------------------------|



E|--------------------------------------------------------------------------|
B|--13p0--12p0------------13p12---------------------------------------------|
G|--------------14/16\12--------14-14--14/16---------14--------14----16~~~--|
D|-------------------------------------------15---14----14--12----12--------|
A|--------------------------------------------------------------------------|
E|--------------------------------------------------------------------------|



E|----12-----------------------------15-15-15-15-15-15-15-15-15------------------------15-15-15-15-15-15-15-15-15
B|13----13---/17-17--15-15--17--/17-17-17-17-17-17-17-17-17-17-/17-17--15-15--17--/17-17-17-17-17-17-17-17-17-17
G|------------/17-17--17-17--17---------------------------------/17-17--17-17--17--------------------------------
D|---------------------------------------------------------------------------------------------------------------
A|---------------------------------------------------------------------------------------------------------------
E|---------------------------------------------------------------------------------------------------------------



E|------17----17----17----17----17---------19~~~--|
B|--/15----15----15----15----15------15/17--------|
G|------------------------------------------------|
D|------------------------------------------------|
A|------------------------------------------------|
E|------------------------------------------------|


F           C                Am
Do meu coração, controle te dou;
             G              F
Te rendo todo meu louvor,
             C
Justiça e amor,
                 G
Me abraçam, Senhor;
              Dm
Te amo com tudo que sou.

      Am          F               C     G
Deus eterno, tua luz, pra sempre, brilhará
       Am         F         C      G
E tua glória excede tudo o que há
      C          F      G
Meu clamor subirá até Ti;
   Am         F
Ouça-me, Senhor,
    G        F      G
Louvamos a Ti em amor.
12.304 exibições

Comentários 0

Composição: Sabe quem é o compositor? Envie pra gente. Contribuição: Vitor Correções: victor_paulista e mais 1 »
Consegui tocarAinda não conseguiram tocar essa música. Seja o primeiro!
    Não consegui tocar
    Exibir acordes »
    publicidade
    fechar