Jesus, Pastor Amado

Hinário Adventista do 7º Dia

Sem foto do Hinário Adventista do 7º Dia
Tom: 
		

E|-----6----6--10-|-6---6---------|-6-------6---8-|-10--8--------|
B|-6-----------6--|-6---8-------8-|-8---6---6---6-|-6---6--------|
G|-7---7----7-----|-------------8-|---------------|--------------|
D|----------------|---------------|---------------|--------------|
A|----------------|---------------|---------------|--------------|
E|----------------|---------------|---------------|--------------|



E|-----6----6--10-|-6---6---------|-6-------6---10-|-8---6--------|
B|-6-----------6--|-6---8-------8-|-8---6-------6--|--------------|
G|-----7----7-----|-------------8-|---------7------|-8---7--------|
D|----------------|---------------|----------------|--------------|
A|----------------|---------------|----------------|--------------|
E|----------------|---------------|----------------|--------------|



E|-----8----8--6-|-8---10------10-|-10--11--10----|-8--------------|
B|-6---6----6--6-|-6--------------|-------------8-|-8---11------10-|
G|---------------|-----10------10-|-10------10----|-----10---------|
D|---------------|----------------|-----13--------|----------------|
A|---------------|----------------|---------------|----------------|
E|---------------|----------------|---------------|----------------|



E|-----6----6--10-|-6---6---------|-6-------6---10-|--------------|--------------|
B|-6-----------6--|-6---8-------8-|-8---6----------|-13--11-------|--------------|
G|-----7----7-----|-------------8-|---------7---10-|--------------|--------------|
D|----------------|---------------|----------------|-13--12-------|--------------|
A|----------------|---------------|----------------|--------------|--------------|
E|----------------|---------------|----------------|--------------|--------------|
444 exibições

Comentários 0

Consegui tocarAinda não conseguiram tocar essa música. Seja o primeiro!
    Não consegui tocar
    Exibir acordes »
    publicidade
    fechar