Hinos de Futebol

Hino Oficial do Sport Club Corinthians Paulista

2.823 exibições
G|-10--9-----------------------------9--7--------- 
D|-------10--7-----7-----7--7--9-10--------10-9-9- 
A|------------------------------------------------ 
E|------------------------------------------------ 
 
 G-7-------------------------------------7-----------9--9 
D------9--7--6------6------6--6--7--9-----10--9-------- 
A------------------------------------------------------ 
E------------------------------------------------------ 
 
G-9--7--6----7---|--7---7--7--9--10---14--10- 
D----------------|----------------------------- 
A----------------|---------------------------- 
E----------------|---------------------------- 
 
G------------------12--|-9------------------- 
D--12--10---10---------|----10--9----9----9-- 
A----------------------|--------------------- 
E----------------------|--------------------- 
 
G---------9-------------|---------------------------- 
D--10--12----12--10--7--|-7--7--9--9--10--10--12--12- 
A-----------------------|---------------------------- 
E-----------------------|---------------------------- 
 
G-10-10--9-------------9|------------------------- 
D----------12--10--12---|--7--7--9--9--10--10--12- 
A-----------------------|------------------------- 
E-----------------------|------------------------- 
 
G-10-10-9------------9--|--9-----9--7--|--6--7-7- 
D---------12--10--12----|------------------------ 
A-----------------------|------------------------ 
E-----------------------|------------------------ 
 
G--5--4---5--5------|-14----10----------------- 
D-------------------|----------12--10--10------ 
A-------------------|-------------------------- 
E-------------------|-------------------------- 
 
G|--12--9--------------|-----------------9-------- 
D|---------10--9--9----|--9--9--10--12--------12-- 
A|---------------------|-------------------------- 
E|---------------------|-------------------------- 
 
G|--------------|------------|---------| 
D|--10----------|--7---------|---------| 
A|------0-------|------------|--0------| 
E|--------------|------------|---------|
    Composição: Luis CarlosColaboração e revisão:
    • Guileocam

    Comentários 0

    conseguiu tocar?

    0:00 / 0:00

    Capítulos

      1 versão de baixoexibiçõescontribuição e correção
      2 versões de gaitaexibiçõescontribuição e correção
      1 versão de Guitar Proformatodownloadscontribuição
      1 versão de partiturasformatodownloadscontribuição
      play/pausefechar subir/descer velocidade
      6ª corda E5ª corda A4ª corda D3ª corda G2ª corda B1ª corda E
        acordes
        publicidad
        fechar
        ok