Pjevajte Nesto Ljubavno

Hladno Pivo

Sem foto do Hladno Pivo
Tom: C
		
************* PJEVAJTE NESTO LJUBAVNO *************

intro:

e--------------------------------------------------|
h--------------------------------------------------|
g------------4-------------------------------------|
d---4-5-7-7----7-5-4-4--7-5-4------5-4-------------|
a-5---------------------------7-7------7-5-4-------|
e--------------------------------------------7-5---|



e-------------------------------------------------|
h-------------------------------------------------|
g------------4------------------------------------|
d---4-5-7-7----7-5-4-4--7-5-4------5-4------------|
a-5---------------------------7-7------7-2--------|
e-------------------------------------------------|



       B5
godine provedene,
G#5
zakopani ispod zemlje
E5
postali smo skupina
G#5        F#5
svirajucih zombija

B5
u birtiji poslije trece,
G#5
tedy rezigniran rece
E5
momci, ne zelim dovijek'
G#5  F#5
biti podrumski covjek

B5
s vremenom sve smo tisi,
G#5
slijede prvi kompromisi
E5
otud samo korak, dva,
G#5        F#5
do pocetka poraza
G#5        F#5
do pocetka poraza
G#5        F#5
do pocetka poraza

REFREN
D5       A5       B5
pjevajte nesto ljubavno,
         G5     A5   D5
sigurno, tiho, sterilno
         A5           B5
pjevajte nesto ljubavno,
           G5  A5     D5
klinke svrsavaju na to

D5       A5       B5
pjevajte nesto ljubavno,
         G5     A5    D5
sigurno, tiho, sterilno
         A5          B5
pjevajte nesto ljubavno,
           G5  A5   D5
klinke svrsavaju na to


e-------------------------------------------------|
h-------------------------------------------------|
g------------4------------------------------------|
d---4-5-7-7----7-5-4-4--7-5-4------5-4------------|
a-5---------------------------7-7------7-5-4------|
e--------------------------------------------7-5--|



e-------------------------------------------------|
h-------------------------------------------------|
g------------4------------------------------------|
d---4-5-7-7----7-5-4-4--7-5-4------5-4------------|
a-5---------------------------7-7------7-2--------|
e-------------------------------------------------|


            B5
prodali smo cak i muda,
G#5
al' sviramo zato svuda
E5
terase, festivali,
G#5         F#5
vise smeca, lova veca

B5
slusaju nas curice
G#5
penzioneri, bakice
E5
i svi umni invalidi,
G#5       F#5
senilni i gluhonjemi
G#5       F#5
senilni i gluhonjemi
G#5       F#5
senilni i gluhonjemi

REFREN
 D5       A5       B5
pjevajte nesto ljubavno,
         G5     A5   D5
sigurno, tiho, sterilno
         A5           B5
pjevajte nesto ljubavno,
           G5  A5     D5
klinke svrsavaju na to

D5       A5       B5
pjevajte nesto ljubavno,
         G5     A5    D5
sigurno, tiho, sterilno
         A5          B5
pjevajte nesto ljubavno,
           G5  A5   D5
klinke svrsavaju na to


e--------------------------------------------------|
h--------------------------------------------------|
g------------4-------------------------------------|
d---4-5-7-7----7-5-4-4--7-5-4------5-4-------------|
a-5---------------------------7-7------7-5-4-------|
e--------------------------------------------7-5---|



e--------------7--------------------------------------|
h---7-8-10-10----10-8-7-7--10-8-7--------8-7----------|
g-7-------------------------------9--9-------9-7-7----|
d-----------------------------------------------------|
a-----------------------------------------------------|
e-----------------------------------------------------|



e---4-5-7-7--9-7-5-4-4--7-5-4------5-4--------------|
h-5----------------------------7-7------7-5-4-------|
g---------------------------------------------6-4---|
d---------------------------------------------------|
a---------------------------------------------------|
e---------------------------------------------------|



e--4-5-7-7--9-7-5-4-4--7-5-4----7-5-4-----7-5-4---7-5-4---7-5-4---7-5-4------|
h-5--------------------------7-7------7-7-------7-------7-------7--------7-5-|
-----------------------------------------------------------------------------|
d----------------------------------------------------------------------------|
a----------------------------------------------------------------------------|
e----------------------------------------------------------------------------|
189 exibições

Comentários 0

Consegui tocarAinda não conseguiram tocar essa música. Seja o primeiro!
    Não consegui tocar
    Exibir acordes »
    publicidade
    fechar