Deslumbrante

Hugo e Gabriel

 Hugo e Gabriel
Tom: D#
		
Intro:

E|----------------------------------------------6--|
B|--6/8-6-4-1-3/4-8-6-4-2/3--6/8-6-4-1-3/4-8-6--6--|
G|----------------------------------------------7--|
D|-------------------------------------------------|
A|-------------------------------------------------|
E|-------------------------------------------------|


Intro: Cm  Bb  Cm  Bb

Cm
  Ainda estar por vir alguém
            Bb
Com teu sorriso
                                    Ab
Que me tire do serio fale o que eu preciso
                                      G
Que arranque essa dor que possa me curar
Cm                                  Bb
  Eu sonho toda noite peço o dia inteiro
                              Ab
Uma hora é saudade outra desespero
                                     G
É fato que eu te amo e não da pra negar

Segunda parte:
Fm
 Você nunca me ouviu
               Cm
Não soube me dizer
                             Ab
O que acontecia entre eu e você
                                     G
Não me deu outra chance para te provar, na na rum na na na

Refrão:
Cm                                     Bb
  Me perco nesse teu jeito tão deslumbrante

É coisa de outro mundo
             Ab
É tudo fascinante

Me lembro dos momentos
              G                   Cm
Me pego a chorar, na na rum na na na
                                    Bb
Cada lugar que eu olho vejo se te encontro
                                     Ab
Se me desse outra chance eu estaria pronto
                                    G                  Cm
Pra te dar o valor que não pude te dar na na rum na na na
Solo:

E|----------------------------------------------6-----------|
B|--6/8-6-4-1-3/4-8-6-4-2/3--6/8-6-4-1-3/4-8-6--6--8/9-8-6--|
G|----------------------------------------------7-----------|
D|----------------------------------------------------------|
A|----------------------------------------------------------|
E|----------------------------------------------------------|


(Intro)

(segunda parte)

(Refrão)

Cm
Ainda estar por vir alguém
            Bb
Com teu sorriso
                                    Ab
Que me tire do serio fale o que eu preciso
                                      G
Que arranque essa dor que possa me curar

( Cm )
8.415 exibições

Comentários 1

Exibir acordes »
publicidade
fechar