Parece Castigo

Hugo Pena e Gabriel

 Hugo Pena e Gabriel
Tom: B
		

Intro 2x: B G#m E C#m F#
E|-9/11-11-11-11--7-9-11-11-12-11-9-7--6/7-7-7-7--4-6-7-7-9-7-6-4-----|
B|-9/11-11-11-11--8-9-11-11-13-11-9-8--6/8-8-8-8--4-6-8-8-9-8-6-4-----|
G|--------------------------------------------------------------------|
D|--------------------------------------------------------------------|
A|--------------------------------------------------------------------|
E|--------------------------------------------------------------------|



E|-2/4--4--4--4---0-2-4-4-6-4--2-4-6-4/6-6-6-6--2-4-6-6-7-9-7-6-7-----|
B|-2/4--4--4--4---1-2-4-4-6-4--2-4-6-4/6-6-6-6--2-4-6-6-8-9-8-6-8-----|
G|--------------------------------------------------------------------|
D|--------------------------------------------------------------------|
A|--------------------------------------------------------------------|
E|--------------------------------------------------------------------|


B                        B B9 G#m
 Eu não consigo te esquecer

Meu pensamento só fica em você
E                    C#m
A cada dia chego a delirar
F#
Se for um sonho me deixa acordar

B                      B B9 G#m
 Parece até ser um castigo

A solidão quer acabar comigo
E                         C#m
 Não posso mais viver sem essa paixão
F#
 De outra chance pro meu coração

Refrão:
B                                    B B9 G#m
 Aonde estou que eu não perco a cabeça

Volta pra mim antes que eu enlouqueça
E                       C#m
 Aonde estou que vejo o mundo girar
F#                               B
 Será que um dia isso vai se acabar

(Intro)

B                      B B9 G#m
 Parece até ser um castigo

A solidão quer acabar comigo
E                         C#m
 Não posso mais viver sem essa paixão
F#
 De outra chance pro meu coração

Refrão 2x:
B                                    B B9 G#m
 Aonde estou que eu não perco a cabeça

Volta pra mim antes que eu enlouqueça
E                       C#m
 Aonde estou que vejo o mundo girar
F#                               B
 Será que um dia isso vai se acabar

Comentários 1

Composição: Leleu
Esse não é o compositor? Avise-nos.
Contribuição: Jonatan Luiz Correções: Alex Sander e mais 2 »
Exibir acordes »
publicidade
fechar