Tom: D#(acordes na forma do tom C)
Capotraste na 3ª casa		
Riff:


E|--------------------------------------------------------|
B|----------------------------4-6-8--8-8-8-6-6-6-4-8-6-4--|
G|-------------5--5-5-5-5--7--5-7-8--8-8-8-7-7-7-5-8-7-5--|
D|6-6-6-6--8---6--6-6-6-6--8------------------------------|
A|8-8-8-8--10---------------------------------------------|
E|--------------------------------------------------------|



E|------------------------------------------------|
B|----------------------------4-6-8--8-8-8-6-4----|
G|-------------5--5-5-5-5--7--5-7-8--8-8-8-7-5-7--|
D|6-6-6-6--8---6--6-6-6-6--8-------------------8--|
A|8-8-8-8--10-------------------------------------|
E|------------------------------------------------|



Dm               F                   Am
Chega mais perto vai quero te encontrar
       G9
Quero saber onde você está
Dm                F                   Am
Chega mais perto vai quero te ouvir falar
       G9                           Dm
Falar de amor pra quem não sabe amar
                   F
Não quero mais saber de nada
C9                     G9                Dm
Nem mesmo te deixar e fugir na hora errada
             F              G9                    G
Entenda a melhor saída é te ter de vez na minha vida (aaa)

Refrão:
Am
Tá afim de um romance?
              F
Compra um livro
             G9                      Am
Se quer felicidade vem me ver de novo

Mas se quer amor...
F            G
Mas se quer amor...
Am
Tá afim de um romance?
              F
Compra um livro
             G9                      Am
Se quer felicidade vem me ver de novo

Mas se quer amor...
F            G
Mas se quer amor...

Solo 2x: Dm  Em  F  Am  G9
Riff:

E|--------------------------------------------------------|
B|----------------------------4-6-8--8-8-8-6-6-6-4-8-6-4--|
G|-------------5--5-5-5-5--7--5-7-8--8-8-8-7-7-7-5-8-7-5--|
D|6-6-6-6--8---6--6-6-6-6--8------------------------------|
A|8-8-8-8--10---------------------------------------------|
E|--------------------------------------------------------|



E|------------------------------------------------|
B|----------------------------4-6-8--8-8-8-6-4----|
G|-------------5--5-5-5-5--7--5-7-8--8-8-8-7-5-7--|
D|6-6-6-6--8---6--6-6-6-6--8-------------------8--|
A|8-8-8-8--10-------------------------------------|
E|------------------------------------------------|



Jorge e Mateus:

Dm               F                   Am
Chega mais perto vai quero te encontrar
       G9
Quero saber onde você está
Dm                F                   Am
Chega mais perto vai quero te ouvir falar
       G9                           Dm
Falar de amor pra quem não sabe amar
                   F
Não quero mais saber de nada
C9                     G9                Dm
Nem mesmo te deixar e fugir na hora errada
             F              G9                    G
Entenda a melhor saída é te ter de vez na minha vida (aaa)

Refrão:
Am
Tá afim de um romance?
              F
Compra um livro
             G9                      Am
Se quer felicidade vem me ver de novo

Mas se quer amor...
F            G
Mas se quer amor...
Am
Tá afim de um romance?
              F
Compra um livro
             G9                      Am
Se quer felicidade vem me ver de novo

Mas se quer amor...
F            G
Mas se quer amor...

Comentários 1

  • jeffinho jeffinho: Postado em 10/04/2012 18:23

    Coloca uma vídeo aula nessa canção por favor !!!

Composição: Raynner, Adriann, Dstefany, Humberto
Esse não é o compositor? Avise-nos.
Contribuição: yanzinho98 Correções: pedross »
Exibir acordes »
publicidade
fechar