Nosso Deus É Poderoso

IAdore

Sem foto do IAdore
Tom: B
		
Intro 4x: B  F#  G#m  E

Solo


E|--------------------------------------11-12-12p11----|
B|-12-12-12....--14p12-12--14p12-12-12-----------------|
G|-----------------------------------------------------|
D|-----------------------------------------------------|
A|-----------------------------------------------------|
E|-----------------------------------------------------|



E|-----------------------------------------------------|
B|-14p12-12--14p12-12-12-----------12------------------|
G|------------------------11h13-13---------------------|
D|-----------------------------------------------------|
A|-----------------------------------------------------|
E|-----------------------------------------------------|


     B
Poderoso
       F#
Nunca falhará
G#m           E
Maravilhoso Deus
             B
Mais que busca_mos
            F#
Mais que pedi_mos
G#m    E        F#
Grandes coisas faz

Refrão:
      B                F#
Ressurgiu e a morte venceu
      G#m          E
Nosso Deus é poderoso
       B/D#         F#
Em Seu nome vamos vencer
      G#m    F#    E
Nosso Deus é poderoso

( B  F#  G#m  E )

    B
Deus conosco
     F#
Sempre perto está
G#m          E
Dando a solução
             B
Mais que sabe_mos
              F#
Mais que espera_mos
G#m     E       F#
Grandes coisas faz

Solo: B/D# F# G#m F# E

       B/D#
Deus conosco
       F#
Nos conduzirá
            G#m
Jamais nos deixa
F          E
Jamais nos deixa
       B/D#
Deus por nós_
       F#
Quer nos abraçar
           G#m
Ele nunca falha
F         E
Ele nunca falha
22.613 exibições

Comentários 0

Composição: Reuben Morgan e Ben Fielding
Esse não é o compositor? Avise-nos.
Contribuição: Nato Correções: cesinhaa »
Exibir acordes »
publicidade
fechar