Sede de Ti

Igreja batista Nova Ebenezer

Sem foto do Igreja batista Nova Ebenezer Compositor: Igreja Batista Nova Ebenezer
Tom: A
		
(intro 2x) C#m D9 E F#m C#m D9 E4


E|-------------------------------------|
B|----------------------------10---9---|
G|-6-6-7-7-9-9-11-11-11-6-6-7----9-----| (2x)
D|-------------------------------------|
A|-------------------------------------|
E|-------------------------------------|


       C#m7      D9       E      F#m
Sei que existe um rio que jorra de Ti
       C#m         D9        E    F#m
Sei que existe uma fonte Pra me saciar
   F#m             E    D9      C#m
No deserto que um dia esteve em mim
    Bm7          E4 E
Uma fonte vem jorrar
       A/C#         D9  E      F#m
Quero estar no Teu rio e mergulhar
       C#m7      D9          E        F#m
Conhecer mais de Ti Senhor E me aprofundar
F#m7(11)       E      C#m7        D9
Navegar em Tuas águas Até te encontrar

               A9
Tenho sede de Ti,
         E
Do Teu amor
      F#m      A/C#  D
Sede da Tua presença Senhor
          A9
Vem, me saciar,
               E/G#
Me faz transbordar
           F#m                  D9
Me faz Novamente Uma fonte à Jorrar

(solo) F#m E C#m D9


E|------------10---------------------|
B|-8-10-10/11----10/12-9-7-------6/7-|
G|-------------------------9-9-6-----|
D|-----------------------------------|
A|-----------------------------------|
E|-----------------------------------|


A Jorrar... a Jorrar... a Jorrar... a Jorrar... a Jorrar... a Jorrar (4X Fraco 2x Forte)
2.197 exibições

Comentários 0

Consegui tocarAinda não conseguiram tocar essa música. Seja o primeiro!
    Não consegui tocar
    Exibir acordes »
    publicidade
    fechar