Red Letter Day

Inspection 12

Sem foto do Inspection 12
Tom: C#
		
                            RED LETTER DAY
INTRO

E---------------------------------------------------------------------------|
B-XX(5)---------------------------------------------------------------------|
G-XX(6)--------13-------13----13-----13-----13---13-----11-----11---11------|
D-XX(6)--11-11----11-11----11----9-9----9-9----9----8-8----8-8----8---------|
A-XX(4)---------------------------------------------------------------------|
E-XX(4)---------------------------------------------------------------------|



 INTRO (continued)

E-------------------------------------------------------------------------|
B-------------------------------------------------------------------------|
G-----9-----9--9-----9-----9---9-----9-----9---9-------9-------8-------9--|(R)
D-7-7---7-7--7---6-6---6-6---6---7-7---7-7---7---11-11---11-11---11-11----|
A-------------------------------------------------------------------------|
E-------------------------------------------------------------------------|


R= REPEAT

 VERSE

E---------------------------------------------------------------------------|
B-5-5-5-5--4-4-4-4-----------5-5-5-------5-5-5-5--4-4-4-4-----------5-5-5-5-|
G-6-6-6-6--4-4-4-4--2-2-2-2--6-6-6---X---6-6-6-6--4-4-4-4--3-3-3-3--6-6-6-6-|
D-6-6-6-6--4-4-4-4--4-4-4-4--6-6-6--4X4--6-6-6-6--4-4-4-4--4-4-4-4--6-6-6-6-|
A-4-4-4-4--2-2-2-2--4-4-4-4--4-4-4--2X2--4-4-4-4--2-2-2-2--4-4-4-4--4-4-4-4-|
E-------------------2-2-2-2----------X---------------------2-2-2-2----------|



 VERSE (continued)

E---------------------------------------------------------------------------|
B----------4-4-4-4-----------5-5-5-5--5---4---------------------------------|
G-9-9-9-9--4-4-4-4--2-2-2-2--6-6-6-6--6---4---3---4-------------------------|
D-6-6-6-6--4-4-4-4--4-4-4-4--6-6-6-6--6---4---4---4-------------------------|
A-7-7-7-7--2-2-2-2--4-4-4-4--4-4-4-4--4---4---2---2-------------------------|
E-O-O-O-O-----------2-2-2-2-----------4---2---2---2-------------------------|



 PRE-CHORUS

E-------------7---------------7----------------------------------------------|
B-5---4---5---5---5---4---5---5----------------------------------------------|
G-6---6---6---6---6---6---6---6------------------6-6-6-6-6-6-6-6-------------|
D-6---6---7---7---6---6---7---7--4-4-4-4-4-4-4-4-6-6-6-6-6-6-6-6-7-7-7-7-77--|
A-4---4---7---0---4---4---7---0--4-4-4-4-4-4-4-4-4-4-4-4-4-4-4-4-7-7-7-7-7-7-|
E---------5---------------5------2-2-2-2-2-2-2-2-----------------5-5-5-5-5-5-|



  Guitar 1     (Guitar 2 Harmony Octaves)      O

E---------------------------------------------------------------------------|
B---------------------------------------------------------------------------|
G-6-6-6-6-8-8-8-8-9-------(-6-6-6-6-4-4-4-4-6-)-----------------------------|
D---------------------------------------------------------------------------|
A-4-4-4-4-6-6-6-6-7-------(-4-4-4-4-2-2-2-2-4-)-----------------------------|
E---------------------------------------------------------------------------|



 CHORUS

E--------------------------------------------------------------------------|
B-5-5-5-5-5-5-5-5--------------------5-5-5-5-5-5-5-5-----------------------|
G-6-6-6-6-6-6-6-6--4-4-4-4--6-6-6-6--6-6-6-6-6-6-6-6--4-4-4-4--6-6-6-6-----|
D-6-6-6-6-6-6-6-6--6-6-6-6--7-7-7-7--6-6-6-6-6-6-6-6--6-6-6-6--7-7-7-7-----|
A-4-4-4-4-4-4-4-4--6-6-6-6--7-7-7-7--4-4-4-4-4-4-4-4--6-6-6-6--7-7-7-7-----|
E------------------4-4-4-4--5-5-5-5-------------------4-4-4-4--5-5-5-5-----|



 CHORUS (continued)

E----------------------------------------------------------------------------|
B----------------------------------------------------------------------------|
G-------6-8-(6-8)--------8-9-(9-9)---------6-8-(6-8)-------------------------|
D-6-6-6-----(6-6)--7-7-7-----(6-7)-6-6-6-6-----(6-6)-7-7-(4)(6)-----(6)(7)---|
A-6-6-6-4-6--------7-7-7-6-7-------6-6-6-6-4-6-------7-7--6--7--9-9--7--9----|
E-4-4-4------------5-5-5-----------4-4-4-4-----------5-5--------7-7----------|



 BRIDGE (Bassline)

G----------------------------------------------------------------------------|
D----------------------------------------------------------------------------|
A-4-4-4-----------O-O-O-----------4-4-4-----------O-O-O-4-2-O-----4-4-4------|
E-------O-2-2-2-4-------O-2-2-2-O-------O-2-2-2-4-------------4-2-------O----|



 BRIDGE

E-------------------------------------------------------------------------|
B-------------------------------------------------------------------------|
G-6-6-6------------2-2-2-2-----------6-6-6-6------------2-2-2-2-4-4-4-4---|
D-6-6-6---4-4-4-4--2-2-2-2--4-4-4-4--6-6-6-6---4-4-4-4--2-2-2-2-4-4-4-4---|
A-4-4-4---4-4-4-4--O-O-O-O--4-4-4-4--4-4-4-4---4-4-4-4--O-O-O-O-2-2-2-2---|
E-------O-2-2-2-2-----------2-2-2-2----------O-2-2-2-2--------------------|



E----------------------------------O----------------------------------------|
B----------------------------------O----------------------------------------|
G-6-6-6-----------2-2-2-2----------1---------5-5-6--------------------------|
D-6-6-6---4-4-4-4-2-2-2-2-4-4-4-4--2----6-6--6-6-6--------------------------|
A-4-4-4---4-4-4-4-O-O-O-O-4-4-4-4--2----6-6--3-3-4--------------------------|
E-------O-2-2-2-2---------2-2-2-2--O----4-4---------------------------------|



 SOLO (Verse chords underneath solo)

E------------------------------------------------------------------------|
B------------------------------------------------------------------------|
G-6-8-9---6-8-9-8---6-8-9-8-6---6-----6-8-9---6-8-9-8---6-8-9-11---------|
D-----------------------------7----------------------------------11-9-11-|
A------------------------------------------------------------------------|
E------------------------------------------------------------------------|



E--------------------------(11)-(11)(12)(14)(14)(16)(14)(14)(12)--------|
B-(9)(1O)(12)--(14)(12)(12)-----------9--1O--1O--12--1O--1O---9---------|
G--9--11--13----14--13--13--11---11-------------------------------------|
D-----------------------------------------------------------------------|
A-----------------------------------------------------------------------|
E-----------------------------------------------------------------------|



E-----------------------------------------------------------------------|
B-----------------------------------------------------------------------|
G-6-8-9--6-8-9-8-6---6--------4--4-6------------------------------------|
D------------------7----------4--4-6------------------------------------|
A-----------------------------2--2-4------------------------------------|
E-----------------------------------------------------------------------|



  (VERSE)

(CHORUS)
254 exibições

Comentários 0

Composição: Lana Rodes / Ruth Thornhill
Esse não é o compositor? Avise-nos.
Consegui tocarAinda não conseguiram tocar essa música. Seja o primeiro!
    Não consegui tocar
    Exibir acordes »
    publicidade
    fechar