Ira!

Eu Quero Sempre Mais

983.076 exibições
Tom: C
Intro 2x: C  Am7  G

Solo Intro:

Parte 1


E|------------------------------------------------------|
B|------------------------------------------------------|
G|------------------------------------------------------|
D|-2-2---0-3-0----2-2---0-3-0--------0-2-0--------------|
A|-----3-------3------3-------3--0-3-------3-0h2--------|
E|------------------------------------------------------|


Parte 2


E|------------------------------------------------------|
B|-1-0-1-3-1-0--1-0-1-3-1-0--1-0-1-3-1-0----------------|
G|------------------------------------------------------|
D|------------------------------------------------------|
A|------------------------------------------------------|
E|------------------------------------------------------|


Primeira Parte – Primeira Estrofe:

         C
A minha vida
              F9       G9
Eu preciso mudar todo dia
         C7M
Pra escapar
                      F9
Da rotina dos meus desejos
          G9
Por seus beijos

Primeira Parte – Primeira Estrofe:

Parte 1


E|------------------------------------------|
B|------------------------------------------|
G|-0-0-0-0-0-0-0-0--0-0-0-0-0-0-0-0---------|
D|-2-2-2-2-2-2-2-2--2-2-2-2-2-2-2-2---------|
A|-3-3-3-3-3-3-3-3--3-3-3-3-3-3-3-3---------|
E|------------------------------------------|

   ↓ ↓ ↓ ↓ ↓ ↓ ↓ ↓  ↓ ↓ ↓ ↓ ↓ ↓ ↓ ↓

Parte 2


   F9             G9
E|------------------------------------------|
B|---1-----1--------3-----3-----------------|
G|-----0-----0--------0-----0---------------|
D|-3-----3-----3--5-----5-----5-------------|
A|------------------------------------------|
E|------------------------------------------|


Parte 3


   C7M
E|------------------------------------------|
B|---0-----0--------0-----0-----------------|
G|-----0-----0--------0-----0---------------|
D|-------2-----2--------2-----2-------------|
A|-3--------------3-------------------------|
E|------------------------------------------|


Parte 4


   F9             G9
E|---------3--------------5-----------------|
B|---1-------1------3-------3---------------|
G|-----0--------------0---------------------|
D|-3-----3-----3--5-----5-----5-------------|
A|------------------------------------------|
E|------------------------------------------|


Primeira Parte – Segunda Estrofe:

           C
E os meus sonhos

Eu procuro acordar
   F9             G9
E perseguir meus sonhos
            C7M
Mas a realidade que vem depois
             F9            G9
Não é bem aquela que planejei


Primeira Parte – Segunda Estrofe:

Parte 1


E|------------------------------------------|
B|------------------------------------------|
G|-0-0-0-0-0-0-0-0--0-0-0-0-0-0-0-0---------|
D|-2-2-2-2-2-2-2-2--2-2-2-2-2-2-2-2---------|
A|-3-3-3-3-3-3-3-3--3-3-3-3-3-3-3-3---------|
E|------------------------------------------|

   ↓ ↓ ↓ ↓ ↓ ↓ ↓ ↓  ↓ ↓ ↓ ↓ ↓ ↓ ↓ ↓

Parte 2


   F9             G9
E|------------------------------------------|
B|---1-----1--------3-----3-----------------|
G|-----0-----0--------0-----0---------------|
D|-3-----3-----3--5-----5-----5-------------|
A|------------------------------------------|
E|------------------------------------------|


Parte 3


   C7M
E|------------------------------------------|
B|---0-----0--------0-----0-----------------|
G|-----0-----0--------0-----0---------------|
D|-------2-----2--------2-----2-------------|
A|-3--------------3-------------------------|
E|------------------------------------------|


Parte 4


   F9             G9
E|---------3--------------5-----------------|
B|---1-------1------3-----------------------|
G|-----0--------------0---------------------|
D|-3-----3-----3--5-----5-------------------|
A|------------------------------------------|
E|------------------------------------------|


Refrão:

F9  G9
       Eu quero sempre mais
F9  G9
       Eu quero sempre mais
F9  G9
       Eu espero sempre mais

De ti

Repete Intro 2x: C  Am7  G

Segunda Parte:

    C
Por isso hoje

Estou tão triste
            F9
Por que querer está
     G9         C7M
Tão longe de poder
           F9
E quem eu quero
          G9
Está tão longe

Refrão:

          C
Longe de mim

F9  G9
       Longe de mim
F9  G9
       Longe de mim
F9  G9
       Longe de mim

Base Solo  4x: C  Am7  G

Solo:

Parte 1


E|------------------------------------------------------|
B|-------------8-------8--------------------------------|
G|-7-7-7/9-9-9---9-7-9---9-9\7-7-7/9-7-5----------------|
D|---------------------------------------7--------------|
A|------------------------------------------------------|
E|------------------------------------------------------|


Parte 2


E|--------------------------8---------------------------|
B|-6-5-----------5-6-8-8/10-----------------------------|
G|-----7-5-4-5-7----------------------------------------|
D|------------------------------------------------------|
A|------------------------------------------------------|
E|------------------------------------------------------|


Parte 3


E|--------8------8------8-------8-10/12-10-8------------|
B|-8-8h10---8h10---8h10-8--8h10-------------------------|
G|------------------------------------------------------|
D|------------------------------------------------------|
A|------------------------------------------------------|
E|------------------------------------------------------|


Parte 4


E|-12-12-12-10-10-10-8-8-8-7-7-7------------------------|
B|-------------------------------10-10-10---------------|
G|----------------------------------------8-8-8---------|
D|----------------------------------------------6-6-6---|
A|------------------------------------------------------|
E|------------------------------------------------------|


Parte 5


E|-5-5-3-5-5-5--3/5-5-x-5-5--3/5-5-x-3-3-3--------------|
B|-5-5-3-5-5-5--3/5-5-x-5-5--3/5-5-x-3-3-3--------------|
G|------------------------------------------------------|
D|------------------------------------------------------|
A|------------------------------------------------------|
E|------------------------------------------------------|

   ↓ ↓ ↓ ↓ ↓ ↓  ↓   ↑ ↓ ↓ ↓  ↓   ↑ ↓ ↓ ↑ ↓  

Parte 6


E|-12-12-12-12-12--10-10-10--8-8-7-7--------------------|
B|-10-10-10-10-10---8--8--8----------10-10-8------------|
G|------------------------------------------------------|
D|------------------------------------------------------|
A|------------------------------------------------------|
E|------------------------------------------------------|

   ↓  ↑  ↓  ↓  ↓   ↓  ↑  ↓

Parte 7


E|------------------------------------------------------|
B|-----8------------------------------------------------|
G|-7h9---9p7-5-7-5--------------------------------------|
D|-----------------7-5----------------------------------|
A|------------------------------------------------------|
E|------------------------------------------------------|


Primeira Parte – Primeira Estrofe:

         C
A minha vida
              F9       G9
Eu preciso mudar todo dia
         C7M
Pra escapar
                      F9
Da rotina dos meus desejos
          G9
Por seus beijos

Primeira Parte – Segunda Estrofe:

           C
E os meus sonhos

Eu procuro acordar
   F9             G9
E perseguir meus sonhos
            C7M
Mas a realidade que vem depois
             F9            G9
Não é bem aquela que planejei

Refrão:

F9  G9
       Eu quero sempre mais
F9  G9
       Eu quero sempre mais
F9  G9
       Eu espero sempre mais

De ti

Repete Intro: C  Am7  G

Segunda Parte:

    C
Por isso hoje

Estou tão triste
            F9
Por que querer está
     G9         C7M
Tão longe de poder
           F9
E quem eu quero
          G9
Está tão longe

Refrão:

          C
Longe de mim

F9  G9
       Longe de mim
F9  G9
       Longe de mim
F9  G9           C  Am7  G
       Longe de mim
          C  Am7  G
Longe de mim
          C
Longe de mim
    Composição: Edgard ScandurraColaboração e revisão:
    • Leo Eymard
    • mateuszchaves
    • Blazeque
    • césiaruts
    • marcia
    • +1

    Comentários 14

    140 .
    • Bruninho Bruninho: Em 15/01/2016 19:56

      Galera encontrei dois pequenos erros no solo: na parte 1 onde está marcado a casa 3 da corda 'ré' é tocado a casa 2, e na parte 4, o solo

    • Douglas Douglas: Em 10/12/2015 19:59

      Ai, me parece que a tablatura esta diferente!! Na quinta nota da introdução esta marcando Fá e acho que ele toca Mi no video.

    • Diego Diego: Em 03/12/2015 19:55

      não tava afim de aprender essa musica (mas eu gosto dela) mas depois de ver o leo tocando ela vo aprender

    • Maximiliano Maximiliano: Em 20/11/2015 12:57

      Top!

    • Otávio Otávio: Em 23/06/2015 16:25

      falto o solo no meio da músicaa

    • arionirjose.moreira arionirjose.moreira: Em 21/03/2014 03:04

      mudei meio estilo,ficou louco.

    • creni creni: Em 23/08/2012 11:52

      gostaria de ver o solo

    • lalah23 lalah23: Em 18/11/2011 14:19

      muito massa

    • maxmateus maxmateus: Em 17/10/2011 14:11

      de mais!!!!!!! parece dificil quando ele toca a introdução, mas quando agente toca, fica facil.... né galera....?

      • mauriciopereira mauriciopereira: Em 10/07/2012 12:55

        Daí colega! Vi que você teve facilidade.. Já eu estou apanhando a um tempão! poderia dar alguma dica?
        Obrigado!

    140 cancelar

    conseguiu tocar?

    • Gustavo
    • felipewill.delfino
    • bucketheadlands
    • William
    • [Al]phonse
    • FelipeKF3
    • Larissa
    • •••
    CBJUNIOR04 - Rock Nacional no Baixo - Bass Cover2.773 visualizações
    ver covers de outras músicas »
    0:00 / 0:00
    1 versão de baixo exibições contribuição e correção
    1 versão de gaita exibições contribuição e correção
    2 versões de Guitar Proformatodownloadscontribuição
    play/pausefechar subir/descer velocidade
    6ª corda E5ª corda A4ª corda D3ª corda G2ª corda B1ª corda E
      acordes
      versão revisada Leo Eymard instrutor de violão
      publicidad
      fechar
      ok