Ira!

Tarde Vazia

543.728 exibições
Tom: C
Intro 2x: D D5


 D
E-----2-0---------------------------------
B---3-------2-3---------------------------
G-2---------------------------------------
D-0-------0-------------------------------
A-----------------------------------------
E-----------------------------------------


E-------2h3---------2h3---------2h3-------
B-----3-----3-----3-----3-----3-----3-----
G---0-----------0-----------0-----------0-
D-0-----------0-----------0-----------0---
A-----------------------------------------
E-----------------------------------------


E---3p2-----------------------------------
B-3-----3---------------------------------
G-----------------------------------------
D-----------------------------------------
A-----------------------------------------
E-----------------------------------------


Primeira Parte:
D                                   G5/D
  Pela janela vejo fumaça, vejo pessoas.
D         	              G5/D
  Na rua os carros, no céu o sol e a chuva.
D               G   D                G5/D
  O telefone tocou    na mente fantasia

Refrão:
G7M        F#m7(11)/E    Em7
     Você me          ligou
    A4
Naquela tarde vazia
G7M    F#m7(11)/E   Em7   F#m7(11)/E
    E me         valeu o dia

G7M       F#m7(11)/E    Em7
    Você me          ligou
    A4
Naquela tarde vazia
G7M     F#m7(11)/E   Em7    F#m7(11)/E
     E me         valeu o dia
Em7(9)

Primeira Parte com variação
D9(11)                                   G5
       Pela janela vejo fumaça, vejo pessoas.
D            D/F# 	      G5
  Na rua os carros, no céu o sol e a chuva.
D        D/F#      G5
  O telefone tocou
D           D/F# G5
  Na mente fantasia

D9(11)
↓↓↑ ↑↓↑

Repetições: Primeira Parte
D
↓↓↑ ↑↓↑  ↓↓↑ ↑↓↑


 G5
E-----------------------------------------
B-3------3---------3--------3-------------
G-0--2h4-------2h4------2h4---4-2-0-------
D-0---------------------------------4-2-0-
A-----------------------------------------
E-3---------3---------3-------------------


D
↓↓↑ ↑↓↑


 G
E----------------------------2h3-2--0-----
B---------3-------3--------3-3---3--3--3--
G-----2h4-----2h4------2h4---0------------
D-0---------------------------------------
A-----------------------------------------
E-3---------3-------3---------------------


D
↓↓↑ ↑↓↑


 G5
E-----------------------------------------
B-3------3---------3--------3-------------
G-0--2h4-------2h4------2h4---4-2-0-------
A-0---------------------------------4-2-0-
D-----------------------------------------
E-3---------3---------3-------------------


D
↓↓↑ ↑↓↑ ↓↓↑ ↑↓↑
G
↓↓↑ ↑↓↑ ↓↓↑ ↑↓↑

Refrão com variação na letra:
G7M        F#m7(11)/E    Em7
     Você me          ligou
    A4
Naquela tarde vazia

G7M      F#m7(11)/E   Em7  F#m7(11)/E
     Na mente        fantasia
G7M        F#m7(11)/E    Em7
     Você me          ligou
    A4
Naquela tarde vazia
G7M      F#m7(11)/E   Em7  F#m7(11)/E  Em7(9)
     Na mente        fantasia

Segunda Parte:

( D  D/A  D/C  D/B ) (2x)

D          D/A           D/C
  Você me ligou naquela tarde vazia
   D/B        D   D/A
E me valeu o dia
D/C              D/B
    Valeu o dia.     Valeu o dia
D            D/A         D/C
  Você me ligou naquela tarde vazia
    D/B        D   D/A
Na mente fantasia
D/C                    D/B
    Na mente fantasia.     Na mente fantasia
D5(9)        G6/B         C9
      Podia ter muitas garotas
     Em7(9)
Mas você é diferente
D5(9)            G6/B        C9
      Você me ligou naquela tarde vazia
   Em7(9)     D5(9) G6/B
E me valeu o dia
C9              Em7(9)
        Valeu o dia.        Valeu o dia

( D5(9)  G6/B  C9  Em7(9) ) (4x)
( D   D/B    D/C   G6/B   D5(9) )
    Composição: Edgard Scandurra / Ricardo GaspariniColaboração e revisão:
    • Caroline
    • Anna Gabriella
    • andre
    • Binho
    • GGiassi_Banda_DaRRua
    • +1

    Comentários 18

    140 .
    140 cancelar

    conseguiu tocar?

    • FelipeKF3
    • shotbugs
    • Felipe
    • Felipe
    • Larissa
    • João
    • Ana Carolina
    • •••
    Andrius Roberto Rossa166 visualizações
      ver covers de outras músicas »
      0:00 / 0:00
      1 versão de baixo exibições contribuição e correção
      1 versão de gaita exibições contribuição e correção
      play/pausefechar subir/descer velocidade
      6ª corda E5ª corda A4ª corda D3ª corda G2ª corda B1ª corda E
        acordes
        publicidad
        fechar
        ok