Doctor Doctor

Iron Maiden

 Iron Maiden
Tom: D
		
Tuning: E A D G B e

This into right here is played on a keyboard normally but heres the guitar for it anyway...


e|---------5------------------------------------------------------------------|
B|-------6---6------------6-10-6------------5-8-5-----------------------------|
G|-----7-------7--------7--------7--------6-------6---------------------------|
D|---7-----------7----8------------8----7-----------7-------------------------|
A|-5--------------------------------------------------------------------------|
E|------------------6-----------------5---------------------------------------|


Heres the solo part right here, its not completly right but, its sound close enough.


e|-----------------------------5-8p5--8s10-8h10p8-6-8-8p6-5-6-6p5---------------|
B|-----5-6---8b10-8-6p5-6----6------------------------------------8-6-5h6-8-5h6-|
G|-5s7-----7---------------7----------------------------------------------------|
D|------------------------------------------------------------------------------|
A|------------------------------------------------------------------------------|
E|------------------------------------------------------------------------------|



e|---------------------10-12-13-12-10----------------------------------------|
B|---10-13-------10-13----------------13b15----------------------------------|
G|---------12b14----------------------------12p10-9-10-12-9h10---------------|
D|-12------------------------------------------------------------------------|
A|---------------------------------------------------------------------------|
E|---------------------------------------------------------------------------|



e|---------10-12-10-13-13-12-13-13p12p10--13b15-13p10--10----------------------|
B|-------10------------------------------------------13---13p10-13p10----------|
G|-----10-------------------------------------------------------------12p10----|
D|---12---------------------------------------------------------------------12-|
A|-12--------------------------------------------------------------------------|
E|-----------------------------------------------------------------------------|



e|---------------------------------------------------------------------------|
B|---------1------------------------5b--3-1-1s6--12br---5b-3-1----5-----7----|
G|---0-2-3---2-3-2----0-2-3-2-4-6---5b--3-2------12br---5b-3-2--6---6-8---8--|
D|-3----------------3--------------------------------------------------------|
A|---------------------------------------------------------------------------|
E|---------------------------------------------------------------------------|


   And finally heres the rythm for the rest of the song


e|---------------------------------------------------------------------------|
B|---------------------------------------------------------------------------|
G|---------------------------------------------------------------------------|
D|--7777777--------------------5555555---------------------------------------|
A|--5555555--8888888--3333333--3333333---------------------------------------|
E|-----------5555555--1111111------------------------------------------------|


  Legend

h= hammer-on
p= pull-off
b= bend
br= bend/realease bend
s= slide
12.072 exibições

Comentários 0

Composição: Evandro Mesquita / Michael Schenker / Neville Staples / Phil Mogg
Esse não é o compositor? Avise-nos.
Contribuição: Élison
Exibir acordes »
publicidade
fechar