Iron Maiden

The Number Of The Beast

387.856 exibições
Tom: F
Riff 1:
D5
     I left alone, my mind was blank.
C5
   I needed time to think to get the
           D5
Memories from my mind.
What did I see, can I believe,
C5
   That what I saw that night was real
              D5
And not just fantasy.
Just what I saw, in my old dreams
C5
   Were they reflections of my warped
              D5
Mind staring back at me.
'Cause in my dreams, it's always there
C5
   The evil face that twists my mind
               D5
And brings me to despair.
        C5  D5
Yeah!!!

Riff 2:
     D5
The night was black, was no use holding back
'Cause I just had to see, was someone
Watching me.
In the mist, dark figures move and twist
Was all this for real, or just some kind of hell.
(Refrão)
 C5        B5+     C5            D5
Six, six, six the number of the beast.
 C5       B5+       C5             D5
Hell and fire was spawned to be released.

Riff 2:
 D5
Torches blazed and sacred chants were praised,
As they start to cry, hands held to the sky.
In the night, the fires burning bright,
The ritual has begun, Satan's work is done.
(Refrão)
 C5        B5+     C5            D5
Six, six, six the number of the beast.
 C5   B5+     C5
Sacrifice is going on tonight.

Riff 3:

Solo:
Bb5  F5 (4x)
Solo 1 – Parte 1 de 7

10h13p10h13p10-------------------------------------
---------------13p11\10h11p10h...--11b13-----------
---------------------------------------------------
---------------------------------------------------
---------------------------------------------------
---------------------------------------------------


Solo 1 – Parte 2 de 7
---------------------------------------------------
10h11p10h...\8h10p8h...\6h8p6h...\5h6p5h...\3------
---------------------------------------------------
---------------------------------------------------
---------------------------------------------------
---------------------------------------------------

Solo 1 – Parte 3 de 7

---------------------------------------------------
15h17p15h.....p15h18p15h...------------------------
---------------------------------------------------
---------------------------------------------------
---------------------------------------------------
---------------------------------------------------


Solo 1 – Parte 4 de 7

---------------------------------------------------
15h17p15h.....p15h18p15h...----18b20r---18b20------
---------------------------------------------------
---------------------------------------------------
---------------------------------------------------
---------------------------------------------------


Solo 1 – Parte 5 de 7
---------------------------------------------------
15h18p15h...\13h15p13h...\11h13p11h...\10h11p10h...
---------------------------------------------------
---------------------------------------------------
---------------------------------------------------
---------------------------------------------------

Solo 1 – Parte 6 de 7
---------------------------------------------------
\8h10p8h...\6h8p6h...\5h6p5h...\3h5p3h...----------
------------------------------------------5/7/5~~--
---------------------------------------------------
---------------------------------------------------
---------------------------------------------------

Solo 1 – Parte 7 de 7
---------------------------------------------------
13h15p13h15p13h15h17p15p13/15h17h18p17p15/17h18h20-
---------------------------------------------------
---------------------------------------------------
---------------------------------------------------
---------------------------------------------------

Riff 4:
Riff 4 – Parte 1 de 2

---------------------------------------------------
---------------------------------------------------
------------7---5---------------------------5---3--
7-7-7--5--7---7---7-5---5-------5-5-5--3--5---5----
5-5-5--3--------------7---7-6-5-3-3-3--1-----------
---------------------------------------------------


Riff 4 – Parte 2 de 2

---------------------------------------------------
---------------------------------------------------
---------------------------------------------------
5-3---3--------------------------------------------
----5---5-4-3-5-5-5--3--3-3-3-5--5-5-5---7---10-12-
--------------3-3-3--1--1-1-1-3--3-3-3---5---8--10-




Solo 2:
D5  F5  G5  Bb5  C5 (4x)


Solo 2 – Parte 1 de 9

---------------------------------------------------
------13-13-------13-13-------13-13-------13-13----
15b17-------15b17-------15b17-------15b17----------
---------------------------------------------------
---------------------------------------------------
---------------------------------------------------


Solo 2 – Parte 2 de 9

---------------------------------------------------
-------13-13---------------------------------------
15b17--------10------------------15b-r~------------
-------------10---12-10----------------------------
------------------------12-11-10-------------------
---------------------------------------------------


Solo 2 – Parte 3 de 9

-------10-10-10-10-13p10--10-10-10-10-12p10----10--
13b15---------------------------------------13-----
---------------------------------------------------
---------------------------------------------------
---------------------------------------------------
---------------------------------------------------


Solo 2 – Parte 4 de 9

---------------------------------------------------
13p10--13p10----10h13p10----10---------------------
-------------13----------13----13p12p10------------
----------------------------------------12---------
---------------------------------------------------
---------------------------------------------------


Solo 2 – Parte 5 de 9

---------------------------------------------------
12b13r12p10------------15-18-------15-18-----------
------------12,--17b19-------17b19-------17b19-----
---------------------------------------------------
---------------------------------------------------
---------------------------------------------------


Solo 2 – Parte 6 de 9

---------------------------------------------------
15-18-------15-18-----15h18-----15h18-----15h18----
------17b19-------17b-------17b-------17b----------
---------------------------------------------------
---------------------------------------------------
---------------------------------------------------


Solo 2 – Parte 7 de 9

---------------------------------------------------
----15h18-----15h18-----15h18-----15h18-----15h18---
17b-------17b-------17b-------17b-------17b--------
---------------------------------------------------
---------------------------------------------------
---------------------------------------------------


Solo 2 – Parte 8 de 9

------------15h17p15-------------15h17p15----------
18b20-18b20----------18p15-18h20----------18p15----
---------------------------------------------------
---------------------------------------------------
---------------------------------------------------
---------------------------------------------------


Solo 2 – Parte 9 de 9

--------20b22--20b22r20p17-------------------------
18b20----------------------18----------------------
------------------------------19-------------------
---------------------------------------------------
---------------------------------------------------
---------------------------------------------------


D5  F5  G5  Bb5  C5

Riff 2:
D5
   This can't go on, I must inform the law.
Can this still be real or just some crazy dream.
But I feel drawn towards the evil chanting hordes
They seem to mesmerize...can't avoid their eyes
 C5        B5+     C5            D5
Six, six, six the number of the beast.
 C5        B5+    C5               D5
Six, six, six the one for you and me.

(Riff 1)
D5  C5

D5
   I'm coming back, I will return
C5
   And I'll possess your body
                   D5
And I'll make you burn.
I have the fire, I have the force.
C5
   I have the power to make
                  D5
My evil take its course.

D5  C5  D5  C5  D5
    Composição: Stephen Percy Harris / Steve HarrisColaboração e revisão:
    • tarsiuslima
    • celo

    Comentários 50

    140 .
    • olavo olavo: Em 31/03/2015 22:03

      onde esta o riff 3?

    • renan_russo renan_russo: Em 09/02/2015 11:29

      Estão diferente a vídeo aula e a cifra. Cadê o riff da introdução? E tem erro no final do solo 1.

    • Gabriel Gabriel: Em 24/01/2014 11:33

      Tirando o solo da pra tirar fácil.

    • lucas lucas: Em 21/01/2014 21:03

      cara q musica facil

    • BostaoDaPrivadaNinja BostaoDaPrivadaNinja: Em 26/12/2013 20:11

      iron maiden? toco, toco... daquele jeito no solo mas toco... kkk

    • stwyu stwyu: Em 11/09/2013 15:45

      ae tarsius pra q essas caretas suas ae?!?!

    • Axel Axel: Em 28/03/2013 11:02

      cade as tabs dos riffs

    • meider meider: Em 15/12/2012 04:37

      kara quando eu tava aprendendo essa musica eu quebrei meu dedo... e até hoje nao aprendi o solo inteiro o.o

    • lucas.zeppelin lucas.zeppelin: Em 08/11/2012 13:09

      Clássico...

    Exibindo 10 de 50 comentários Mostrar mais ver todos »
    140 cancelar
    0:00 / 0:00

    Capítulos

      2 versões de baixo exibições contribuição e correção
      1 versão de bateria exibições contribuição e correção
      1 versão de gaita exibições contribuição e correção
      play/pausefechar subir/descer velocidade
      6ª corda E5ª corda A4ª corda D3ª corda G2ª corda B1ª corda E
        acordes
        publicidad
        fechar
        ok