Wasting Love

Iron Maiden

 Iron Maiden
Tom: G
		
(solo intro)

E|-------------------------------------------------|
B|----7h8----10b12r10-7------12-10-8-7-8-7---------|
G|--9--------------------------------------9-7-9---| (4x)
D|--------10---------------------------------------|
A|-------------------------------------------------|
E|-------------------------------------------------|


(dedilhado intro)


           Em9               D7/C             Em9               D7/C
E|------------------------------------------------------------------|
B|---------------------------3-----------------------------------3--|
G|---------0-------------0---------------------0-------------0------|(2x)
D|-----4-------4-------4---4-----4---------4-------4-------4---4----|
A|---2---2---2---2---3---------3---3-----2---2---2---2---3----------|
E|-0-----------------------------------0----------------------------|


(verso)

           Em9               D7/C             Em9               D7/C
E|------------------------------------------------------------------|
B|---------------------------3-----------------------------------3--|
G|---------0-------------0---------------------0-------------0------|
D|-----4-------4-------4---4-----4---------4-------4-------4---4----|
A|---2---2---2---2---3---------3---3-----2---2---2---2---3----------|
E|-0-----------------------------------0----------------------------|



           Am7               D11/A             Am7               D11/A
E|------------------------------------------------------------------|
B|---------1-----------------3-----------------1-----------------3--|
G|-----0-------0---------0-------0---------0-------0---------0------|
D|---2---2---2---2-----4---4---4---4-----2---2---2---2-----4---4----|
A|-0-----------------0-----------------0-----------------0----------|
E|------------------------------------------------------------------|


(primeira parte)
Em9        D7/C               Em9      D7/C
   Maybe one day I\'ll be an honest man
Em9        D7/C              Em9        D7/C
   Up till now I\'m doing the best I can
Am7     D11/A      Am7     D11/A       Em9          D11/C
   Long      roads,   long    days, of sunrise, to sunset
Em9           D11/C
   Sunrise to sunset

Em9         D11/C    Em9          D11/C
   Dream on brother, while you can
Em9         D11/C              Em9          D11/C
   Dream on sister, I hope you find the one
Am7           D11/A  Am7            D11/A         Em9  D11/C  Em9  D11/C
   All of our lives     covered up quickly by the tides    of time

(refrão)
E5            C5            D5       G5 F5
   Spend your days full of emptiness
E5            C5            D5          G5 F#5
   Spend your years full of loneliness
E5         C5            D5          G5 D5
   Wasting love, in a desperate caress
E5          C5           D5   C5
   Rolling shadows of nights



E|--------------------------|
B|-----------------------3--|
G|-----0-----0-----------0--|(3x)
D|---4-----2-------------2--|
A|-5-----3--------2------0--|
E|--------------0-----------|



E|--------------------|
B|--------------------|
G|-----0-----0--------|
D|---4-----2----------|
A|-5-----3-------2----|
E|-------------0------|


(verso)

           Em9               D11/C             Em9               D11/C
E|------------------------------------------------------------------|
B|---------------------------3-----------------------------------3--|
G|---------0-------------0---------------------0-------------0------|
D|-----4-------4-------4---4-----4---------4-------4-------4---4----|
A|---2---2---2---2---3---------3---3-----2---2---2---2---3----------|
E|-0-----------------------------------0----------------------------|



           Am7               D11/A             Am7               D11/A
E|------------------------------------------------------------------|
B|---------1-----------------3-----------------1-----------------3--|
G|-----0-------0---------0-------0---------0-------0---------0------|
D|---2---2---2---2-----4---4---4---4-----2---2---2---2-----4---4----|
A|-0-----------------0-----------------0-----------------0----------|
E|------------------------------------------------------------------|


(segunda parte)
Em9         D11/C    Em9          D11/C
   Dream on brother, while you can
Em9         D11/C              Em9          D11/C
   Dream on sister, I hope you find the one
Am7           D11/A  Am7            D11/A         Em9  D11/C  Em9  D11/C
   All of our lives     covered up quickly by the tides    of time

Am7          D11/A           Am7               D11/A
  Sands are flowing and the lines are in your hand
          Em9            D11/C
  In your eyes I see the hunger
           Em9                D11/C
  And the desperate cry that tears the night

(refrão)
E5            C5            D5       G5 F5
   Spend your days full of emptiness
E5            C5            D5          G5 F#5
   Spend your years full of loneliness
E5         C5            D5          G5 D5
   Wasting love, in a desperate caress
E5          C5           D5   C5
   Rolling shadows of nights



E|--------------------------|
B|-----------------------3--|
G|-----0-----0-----------0--|(3x)
D|---4-----2-------------2--|
A|-5-----3--------2------0--|
E|--------------0-----------|



E|--------------------|
B|--------------------|
G|-----0-----0--------|
D|---4-----2----------|
A|-5-----3-------2----|
E|-------------0------|


(pré-solo)


E|-------------------------------------------------|
B|----7h8----10b12r10-7------12-10-8-7-8-7---------|
G|--9--------------------------------------9-7-9---| (4x)
D|--------10---------------------------------------|
A|-------------------------------------------------|
E|-------------------------------------------------|



E|-------------------------------------|
B|----7h8----10b12r10-7~---------------|
G|--9------------------------5-5--7-7--|
D|--------10-----------------5-5--7-7--|
A|---------------------------3-3--5-5--|
E|-------------------------------------|


(interlúdio)

  p.m.

E|-----------------------------|
B|---------------------------3-|
G|---------0-------------0-----| (4x)
D|-----4-------4-------4---4---|
A|---2---2---2---2---3---------|
E|-0---------------------------|

   . . . . ... . . . . .

(solo) E5 C5  A5 D5 B5 (4x)



E|----------------------------------------------------|
B|-15-------------------------------------------------|
G|-14b16r14--12----12~---12~\--7b9-7--5-4-5-4---------|
D|--------------14-------12~\-----------------7-5-7~--|
A|----------------------------------------------------|
E|----------------------------------------------------|



E|-----15----14----12--------------------------|
B|-/12----12----12----12-15-15b17-15-13-12~-\--|
G|---------------------------------------------|
D|---------------------------------------------|
A|---------------------------------------------|
E|---------------------------------------------|



E|-----12----14----15----14----15----17----17b19----|
B|-/12----12----12----12----12----12----12----------|
G|--------------------------------------------------|
D|--------------------------------------------------|
A|--------------------------------------------------|
E|--------------------------------------------------|



E|-17b19r17-15-14-15~--17b19r17-15-14------17b19b17-15-14-15-14------------------|
B|------------------------------------15~------------------------15-15b17-15~~~--|
G|-------------------------------------------------------------------------------|
D|-------------------------------------------------------------------------------|
A|-------------------------------------------------------------------------------|
E|-------------------------------------------------------------------------------|



E|----15-14-12----------------------------------|
B|-12----------15-13-12-------------------------|
G|----------------------14-12-14-12-11b12r11~---|
D|----------------------------------------------|
A|----------------------------------------------|
E|----------------------------------------------|



E|-----12----14----15----17--17b19~-17~---|
B|-/12----12----12----12------------------|
G|----------------------------------------|
D|----------------------------------------|
A|----------------------------------------|
E|----------------------------------------|


(refrão 2x)
E5            C5            D5       G5 F5
   Spend your days full of emptiness
E5            C5            D5          G5 F#5
   Spend your years full of loneliness
E5         C5            D5          G5 D5
   Wasting love, in a desperate caress
E5          C5           D5
   Rolling shadows of nights

              (G5  B5)

E5            C5            D5       G5 F5
   Spend your days full of emptiness
E5            C5            D5          G5 F#5
   Spend your years full of loneliness
E5         C5            D5          G5 D5
   Wasting love, in a desperate caress
E5          C5           D5
   Rolling shadows of nights

(Solo Final)


E|--17b19-17b19-17b19--17b19-17n19r17-15-----|
B|---------------------------------------17~-|
G|-------------------------------------------|
D|-------------------------------------------|
A|-------------------------------------------|
E|-------------------------------------------|



E|--------15-----------------------------------|
B|--15b17----15b17r15-12-----------------------|
G|-----------------------14b16r14p12-------12--|
D|--------------------------------------14-----|
A|---------------------------------------------|
E|---------------------------------------------|



E|-----------------------------------------|
B|-----------------------------------------|
G|----14b16r14p12---------14------12-11-9-7|
D|--------------------14--------9----------|
A|-----------------------------------------|
E|-----------------------------------------|


(dedilhado final)


E|----------------------------------|
B|----------------------------3-----|
G|-----0-----0---------------0------|
D|---4-----2----------------2-------|
A|-5-----3----------2------0--------|
E|----------------0-----------------|
Texto Colunas
Alterar tom ½ tom ½ tom
afinação acordes na letra esconder tabs mais »

Comentários (62)

  • David David: Postado em 12/02/2014 13:53

    Achei q era difícil mas eh bem fácil

  • Raynier Raynier: Postado em 13/12/2013 14:05

    Facinho :3

  • gabriel.maia.7393 gabriel.maia.7393: Postado em 24/11/2013 14:20

    solo lindo *u*

  • gulavo gulavo: Postado em 31/10/2013 22:02

    ta demorando a video aula dessa musica perfeita kra

  • juninhotc2012 juninhotc2012: Postado em 06/10/2013 04:52

    so falta decorar a ultima parte do solo

  • Wesley Wesley: Postado em 04/10/2013 12:29

    Suave :D achei que ia ser cão!

  • jvl_neveroff jvl_neveroff: Postado em 23/06/2013 21:09

    Achei qe fosse mais dificil, mais é tranquilão, se alguem ae tiver o segundo solo passa aew o/

  • elison.santos.54 elison.santos.54: Postado em 03/06/2013 11:50

    faltou o segundo sólinho! tive que pegar vendo no you tube! mais de resto mesmo com alguns detalhes fatando é fácil! muito bom

  • anonimus anonimus: Postado em 13/05/2013 16:18

    nao ta tudo certo, muitos detalhes errados

  • rock05 rock05: Postado em 27/01/2013 16:25

    HARM '' quer dizer harmonia.. na pratica é pra ser tocado de maneira mais suave possivel só deixo a palheta deslizar pela corda.. bem suave

Exibindo 10 de 62 comentários Mostrar mais ver todos »
Composição: Bruce Dickinson / Janick Gers / Marcelo Jeneci / Twigg
Esse não é o compositor? Avise-nos.
Contribuição: JAPA Correções: ÉmOnEgÂo , Mutuca e mais 24 »
  1. Tudo Que Você Quiser - Luan Santana Manteve-se 6.004 exibições
  2. Lepo Lepo - Psirico Manteve-se 4.431 exibições
  3. Mozão - Lucas Lucco Manteve-se 4.139 exibições
  4. Logo Eu - Jorge e Mateus Manteve-se 3.880 exibições
  5. Gaveta - Fernando e Sorocaba Manteve-se 3.331 exibições
  6. Pra Você - Onze:20 Manteve-se 3.309 exibições
  7. Só Os Loucos Sabem - Charlie Brown Jr. Manteve-se 3.010 exibições
  8. Tempo Perdido - Legião Urbana Manteve-se 2.530 exibições
  9. Fui Fiel - Gusttavo Lima Manteve-se 2.507 exibições
  10. Na Linha do Tempo - Victor e Leo Manteve-se 2.140 exibições
  1. Jorge e Mateus- Manteve-se 23.268 exibições
  2. Legião Urbana- Manteve-se 20.589 exibições
  3. Luan Santana- Manteve-se 17.386 exibições
  4. Charlie Brown Jr.- Manteve-se 17.172 exibições
  5. Fernandinho- Manteve-se 14.617 exibições
  6. Thalles Roberto- Manteve-se 11.189 exibições
  7. Católicas- Manteve-se 11.033 exibições
  8. Gusttavo Lima- Manteve-se 10.465 exibições
  9. Victor e Leo- Manteve-se 10.434 exibições
  10. Aline Barros- Manteve-se 10.076 exibições
Exibir acordes »

Cifras e tabs

Fórum Cifra Club

Aprenda

Cifra Club News

Mais Serviços Cifra Club ID

Studio Sol

©1996 - 2014 Cifra Club · o primeiro, maior e mais acessado do Brasil · 329 mil músicas · 5.9 milhões pessoas cadastradas

publicidade
fechar