Wasting Love

Iron Maiden

 Iron Maiden
Tom: G
		
(solo intro)

E|-----------------------------------------------------|
B|---------------10b12r10-----12-10--------------------|
G|--9---11-12-------------11--------12-11-12-11-9-7-7/9| (4x)
D|------------10---------------------------------------|
A|-----------------------------------------------------|
E|-----------------------------------------------------|


(dedilhado intro)


              Em9               D7/C             Em9               D7/C
E|------------------------------------------------------------------|
B|---------------------------3-----------------------------------3--|
G|---------0-------------0---------------------0-------------0------|(2x)
D|-----4------4---4-----4---4-----4---------4-------4-------4---4---|
A|---2---2------2---3---------3---3-----2---2---2---2---3-----------|
E|-0-----------------------------------0----------------------------|


(verso)

              Em9               D7/C             Em9               D7/C
E|------------------------------------------------------------------|
B|---------------------------3-----------------------------------3--|
G|---------0-------------0---------------------0-------------0------|
D|-----4-------4-------4---4-----4---------4-------4-------4---4----|
A|---2---2---2---2---3---------3---3-----2---2---2---2---3----------|
E|-0-----------------------------------0----------------------------|



              Am7               D11/A             Am7               D11/A
E|------------------------------------------------------------------|
B|---------1-----------------3-----------------1-----------------3--|
G|-----0-------0---------0-------0---------0-------0---------0------|
D|---2---2---2---2-----4---4---4---4-----2---2---2---2-----4---4----|
A|-0-----------------0-----------------0-----------------0----------|
E|------------------------------------------------------------------|


(primeira parte)
Em9        D7/C               Em9      D7/C
   Maybe one day I\'ll be an honest man
Em9        D7/C              Em9        D7/C
   Up till now I\'m doing the best I can
Am7     D11/A      Am7     D11/A       Em9          D11/C
   Long      roads,   long    days, of sunrise, to sunset
Em9           D11/C
   Sunrise to sunset

Em9         D11/C    Em9          D11/C
   Dream on brother, while you can
Em9         D11/C              Em9          D11/C
   Dream on sister, I hope you find the one
Am7           D11/A  Am7            D11/A         Em9  D11/C  Em9  D11/C
   All of our lives     covered up quickly by the tides    of time

(refrão)
E5            C5            D5       G5 F5
   Spend your days full of emptiness
E5            C5            D5          G5 F#5
   Spend your years full of loneliness
E5         C5            D5          G5 D5
   Wasting love, in a desperate caress
E5          C5           D5   C5
   Rolling shadows of nights



E|--------------------------|
B|-----------------------3--|
G|-----0-----0-----------0--|(3x)
D|---4-----2-------------2--|
A|-5-----3--------2------0--|
E|--------------0-----------|



E|--------------------|
B|--------------------|
G|-----0-----0--------|
D|---4-----2----------|
A|-5-----3-------2----|
E|-------------0------|


(verso)

              Em9               D11/C             Em9               D11/C
E|------------------------------------------------------------------|
B|---------------------------3-----------------------------------3--|
G|---------0-------------0---------------------0-------------0------|
D|-----4-------4-------4---4-----4---------4-------4-------4---4----|
A|---2---2---2---2---3---------3---3-----2---2---2---2---3----------|
E|-0-----------------------------------0----------------------------|



              Am7               D11/A             Am7               D11/A
E|------------------------------------------------------------------|
B|---------1-----------------3-----------------1-----------------3--|
G|-----0-------0---------0-------0---------0-------0---------0------|
D|---2---2---2---2-----4---4---4---4-----2---2---2---2-----4---4----|
A|-0-----------------0-----------------0-----------------0----------|
E|------------------------------------------------------------------|


(segunda parte)
Em9         D11/C    Em9          D11/C
   Dream on brother, while you can
Em9         D11/C              Em9          D11/C
   Dream on sister, I hope you find the one
Am7           D11/A  Am7            D11/A         Em9  D11/C  Em9  D11/C
   All of our lives     covered up quickly by the tides    of time

Am7          D11/A           Am7               D11/A
  Sands are flowing and the lines are in your hand
          Em9            D11/C
  In your eyes I see the hunger
           Em9                D11/C
  And the desperate cry that tears the night

(refrão)
E5            C5            D5       G5 F5
   Spend your days full of emptiness
E5            C5            D5          G5 F#5
   Spend your years full of loneliness
E5         C5            D5          G5 D5
   Wasting love, in a desperate caress
E5          C5           D5   C5
   Rolling shadows of nights



E|--------------------------|
B|-----------------------3--|
G|-----0-----0-----------0--|(3x)
D|---4-----2-------------2--|
A|-5-----3--------2------0--|
E|--------------0-----------|



E|--------------------|
B|--------------------|
G|-----0-----0--------|
D|---4-----2----------|
A|-5-----3-------2----|
E|-------------0------|


(pré-solo)


E|-----------------------------------------------------|
B|---------------10b12r10-----12-10--------------------|
G|--9---11-12-------------11--------12-11-12-11-9-7-7/9| (4x)
D|------------10---------------------------------------|
A|-----------------------------------------------------|
E|-----------------------------------------------------|



E|----------------------------------------|
B|--------------10b12r10------------------|
G|--9--11-12-------------11-----5-5--7-7--|
D|-----------10-----------------5-5--7-7--|
A|------------------------------3-3--5-5--|
E|----------------------------------------|


(interlúdio)

  palm mute

E|-----------------------------|
B|---------------------------3-|
G|---------0-------------0-----| (4x)
D|-----4-------4-------4---4---|
A|---2---2---2---2---3---------|
E|-0---------------------------|

   . . . . ... . . . . .

(solo) E5 C5  A5 D5 B5 (4x)



E|----------------------------------------------------|
B|-15-------------------------------------------------|
G|-14b16r14--12----12~---12~\--7b9-7--5-4-5-4---------|
D|--------------14-------12~\-----------------7-5-7~--|
A|----------------------------------------------------|
E|----------------------------------------------------|



E|-----15----14----12--------------------------|
B|-/12----12----12----12-15-15b17-15-13-12~-\--|
G|---------------------------------------------|
D|---------------------------------------------|
A|---------------------------------------------|
E|---------------------------------------------|



E|-----12----14----15----14----15----17----17b19----|
B|-/12----12----12----12----12----12----12----------|
G|--------------------------------------------------|
D|--------------------------------------------------|
A|--------------------------------------------------|
E|--------------------------------------------------|



E|-17b19r17-15-14-15~--17b19r17-15-14------17b19b17-15-14-15-14------------------|
B|------------------------------------15~------------------------15-15b17-15~~~--|
G|-------------------------------------------------------------------------------|
D|-------------------------------------------------------------------------------|
A|-------------------------------------------------------------------------------|
E|-------------------------------------------------------------------------------|



E|----15-14-12----------------------------------|
B|-12----------15-13-12-------------------------|
G|----------------------14-12-14-12-11b12r11~---|
D|----------------------------------------------|
A|----------------------------------------------|
E|----------------------------------------------|



E|-----12----14----15----17--17b19~-17~---|
B|-/12----12----12----12------------------|
G|----------------------------------------|
D|----------------------------------------|
A|----------------------------------------|
E|----------------------------------------|


(refrão 2x)
E5            C5            D5       G5 F5
   Spend your days full of emptiness
E5            C5            D5          G5 F#5
   Spend your years full of loneliness
E5         C5            D5          G5 D5
   Wasting love, in a desperate caress
E5          C5           D5
   Rolling shadows of nights

              (G5  B5)

E5            C5            D5       G5 F5
   Spend your days full of emptiness
E5            C5            D5          G5 F#5
   Spend your years full of loneliness
E5         C5            D5          G5 D5
   Wasting love, in a desperate caress
E5          C5           D5
   Rolling shadows of nights

(Solo Final)


E|--17b19-17b19-17b19--17b19-17n19r17-15-----|
B|---------------------------------------17~-|
G|-------------------------------------------|
D|-------------------------------------------|
A|-------------------------------------------|
E|-------------------------------------------|



E|--------15-----------------------------------|
B|--15b17----15b17r15-12-----------------------|
G|-----------------------14b16r14p12-------12--|
D|--------------------------------------14-----|
A|---------------------------------------------|
E|---------------------------------------------|



E|-----------------------------------------|
B|-----------------------------------------|
G|----14b16r14p12---------14------12-11-9-7|
D|--------------------14--------9----------|
A|-----------------------------------------|
E|-----------------------------------------|


(dedilhado final)


E|----------------------------------|
B|----------------------------3-----|
G|-----0-----0---------------0------|
D|---4-----2----------------2-------|
A|-5-----3----------2------0--------|
E|----------------0-----------------|

Comentários 74

  • giovanni.picardi.587 giovanni.picardi.587: Postado em 08/12/2014 07:41

    video aula q preste por favor, to no cifra club pf neh...
    zzzzzzzzzzzzzzzzzzz

  • 16L 16L: Postado em 06/12/2014 23:52

    Esperei 2 anos por isso... ;-;

  • fernando.alves.75248795 fernando.alves.75248795: Postado em 06/12/2014 00:00

    queria fazer aquele solo só que minha mizinha quebrou ;-;

    • emilio emilio: Postado em 14/12/2014 - 16:21

      quebrou? eheuheuhuhe nice

  • nathan.amaral.357 nathan.amaral.357: Postado em 05/12/2014 23:19

    sabia que ia ter video aula

  • alexandre alexandre: Postado em 13/10/2014 14:44

    video aula

  • Lucas Lucas: Postado em 08/10/2014 19:25

    eu já sabia ta um pouco certa

  • Miguel Miguel: Postado em 26/07/2014 14:17

    sou iniciante toco apenas a 4 meses meu relatório é:so precisa de velocidade(algo q ainda ñ teno)prq as formas são faces de serem feitas

  • elias2465266 elias2465266: Postado em 18/07/2014 17:05

    very easy

  • enzo.david.37 enzo.david.37: Postado em 10/07/2014 13:50

    eu ainda só peguei o dedilhado

Exibindo 10 de 74 comentários Mostrar mais ver todos »
Composição: Bruce Dickinson / Janick Gers / Marcelo Jeneci / Twigg
Esse não é o compositor? Avise-nos.
Contribuição: JAPA Correções: Felipe , ÉmOnEgÂo e mais 27 »
Exibir acordes »
publicidade
fechar