Completo

Ivete Sangalo

 Ivete Sangalo
Tom: D
		
(intro)  A  F#m  D   E


E |--------------------------------------------------------------------------------|
B |-10--10--10-----------10--10--10-----------10--10--10---------------------------|
G |---9---7---6p7h6--6-----9---7---6p7h6--6-----9---7---6p7h6--6-----s7s9----------| (2x)
D |----------------9--------------------9--------------------9---------------------|
A |--------------------------------------------------------------------------------|
E |--------------------------------------------------------------------------------|



E |---------------|
B |---------------|
G |--6s7--9-9-----|
D |--7----7-7-----|
A |---------------|
E |---------------|


      Bm                  E
É tão bom ter alguém por perto
      Bm               E
Pra você se sentir completo
      F#m                   B
Ter a mão que te leva pro futuro
       D                     E
Vislumbrando um horizonte seguro

      Bm             E
É tão bom viajarmos juntos
    Bm                E
E viver aproveitando tudo
   F#m                      B
Amanhã  vai ser melhor que hoje
       D        E      A
Novos sonhos ao amanhecer

   G        D/F#     A
Imagino milhoes de sorrisos
     G          D/F#      A
Cada um com seu jeito de ser
      G        D/F#     A
Mas ligados no mesmo destino
     G        D/F#     E
Com amor feito eu e você

(coro 2x)
          F#m               D
O céu e o mar, a lua e a estrela
              E                                A
O branco e o preto, tudo se completa de algum jeito
         F#m
Homem, mulher
            D                        E
A faca e o queijo, o incerto e o perfeito
                           A
Tudo se completa de algum jeito.

(intro)

(repete tudo)
205.769 exibições

Comentários 0

Composição: Dony McGuire / Gonzaga Jr.
Esse não é o compositor? Avise-nos.
Contribuição: Lucke Correções: suzy e mais 1 »
Exibir acordes »
publicidade
fechar