Na Base do Beijo

Ivete Sangalo

 Ivete Sangalo
Tom: F
		
(intro 4x) (Bb9)

(Bb9)
Quando eu te pegar você vai ver, você vai ver
Ai de ti, ai de ti.
                                  Bb9
Vai se amarrar só querer saber de mim
                C9  Eb9     Bb9
Você vai se dar bem   e eu também
                C9  Eb9     Bb9
Você vai se dar bem   e eu também


E|-----------------------------|
B|-----------------------------|
G|-----------------------------|
D|-----------------------------|
A|--1-1---------1----1---------|
E|------3-1-1-3---3------------|


        Bb9                 C9      Eb9                Bb9
Comigo é na base do beijo, comigo é na base do amor
   Bb9                    C9                     Eb9                      Bb9
Comigo não tem disse me disse, não tem chove não molha, desse jeito que sou      (2x)

Bb                  C9                       Eb9
Quando amo é pra valer, quando amo é pra valer
                                          Bb9
Dou carinho me entrego, faço o amor acontecer
                                             C9
Quando amo é pra valer, quando amo é pra valer
                   Eb9                       Bb9
Dou carinho me entrego, faço o amor acontecer


E|-----------------1-----------|
B|-----------------1-----------|
G|-----------------3-----------|
D|-----------------3-----------|
A|--1-1------------1-----------|
E|------3-3-1-3-1--------------|


Bb9          C9
Vamos namorar
           Eb9
Beijar na boca
            Bb9
Vamos namorar
            C9  Eb9
Beijar na boca

(repete tudo)
104.396 exibições

Comentários 0

Composição: Alain Tavares / Dewey Bunnell / Lito Solanas
Esse não é o compositor? Avise-nos.
Contribuição: Nanda Barberino Correções: jrpapini »
Exibir acordes »
publicidade
fechar