At Or With Me

Jack Johnson

 Jack Johnson
Tom: E
		
Intro 4x: B  E

    B  E  F#m
E|--7--7--2--|
B|--7--9--2--|
G|--8--9--2--|
D|--9--9--4--|
A|--9--7--4--|
E|--7--x--2--|


Intro: B  E


E|----------------------------|
B|----9-7----------9-7--------|
G|--------9-8-6--------9-9----|   (2x)
D|--------------9-------------|
A|----------------------------|
E|----------------------------|


    Are they laughing at or with me?

                          B
E|------------------------7----|
B|------------------------7----|
G|---------6--------------8----|
D|----/6-9---9-6----------9----|
A|---------------9-7/9----9----|
E|------------------------7----|


    Oh baby those are such great shoes

                          E
E|------------------------7----|
B|------------------------9----|
G|------------------------9----|
D|----/9-9-6-9-6----------9----|
A|---------------9-7-7----7----|
E|------------------------x----|


    And I think that I'm so happy now

                            B
E|--------------------------7----|
B|--------------------------7----|
G|------------9-------------8----|
D|----/9-9-11---11-9-6/9----9----|
A|--------------------------9----|
E|--------------------------7----|


    And I think this is a better you

                          E
E|------------------------7----|
B|------------------------9----|
G|------------------------9----|
D|----/9-9-6-9-6----------9----|
A|---------------9-7-7----7----|
E|------------------------x----|


Refrão:
    oh oh oh oh oh oh oh ohoho... Are they laughing at or with me
    oh oh oh oh oh oh oh ohoho... Why can't we just say what we mean?

                         B                       E
E|-----------------------7-----------------------7----|
B|-----------------------7-----------------------9----|
G|----9-9-6-9-6----------8----9-9-6-9-6----------9----|    (2x)
D|--------------9-6-9----9--------------9-6------9----|
A|-----------------------9------------------7----7----|
E|-----------------------7-----------------------x----|


Verso 2:
    People are just trying to fit in

                          B
E|------------------------7----|
B|------------------------7----|
G|---------6--------------8----|
D|----/9-9---9-6----------9----|
A|---------------9-7/9----9----|
E|------------------------7----|


    But is there something telling you

                          E
E|------------------------7----|
B|------------------------9----|
G|------------------------9----|
D|----/9-9-6-9-6----------9----|
A|---------------9-7-7----7----|
E|------------------------x----|


    You can't trust anyone in this town

                             B
E|---------------------------7----------------------------------------------|
B|---------------------------7----------------------------------------------|
G|------------9-9------------8----------------------------------------------|
D|----/9-9-11----11-9-6/9----9----------------------------------------------|
A|---------------------------9----------------------------------------------|
E|---------------------------7----------------------------------------------|


    Oh baby those are such great shoes

                          E
E|------------------------7-------------------------------------------------|
B|------------------------9-------------------------------------------------|
G|------------------------9-------------------------------------------------|
D|----/9-9-6-9-6----------9-------------------------------------------------|
A|---------------9-7-7----7-------------------------------------------------|
E|------------------------x-------------------------------------------------|


Refrão:
    oh oh oh oh oh oh oh ohoho... Are they laughing at or with me
    oh oh oh oh oh oh oh ohoho... Why can't we just say what we mean?

                         B                       E
E|-----------------------7-----------------------7----|
B|-----------------------7-----------------------9----|
G|----9-9-6-9-6----------8----9-9-6-9-6----------9----|   (2x)
D|--------------9-6-9----9--------------9-6------9----|
A|-----------------------9------------------7----7----|
E|-----------------------7-----------------------x----|


                                  F#m            B
Don't put your money where your mouth is baby
                  E
We don't want to see you choke
                    F#m                B
Nobody's joking around here any more
                 E
Nobody's broken any high scores
                               F#m               B
No dancing shoes have touched these dusty floor
               E
For such a long long time
              F#m              B
For such a long long time
              E
For such a long time
Solo:

E|------------------------------------------------------------------------|
B|--------------------------------------14-12-----------------------------|
G|-------------9-11-11/13-b13-b13-------------13-11/13-11-----------------|
D|--------9-11--------------------------------------------13-9/11-9-------|
A|----/11-----------------------------------------------------------11----|
E|------------------------------------------------------------------------|



E|-------------------------------------------------------------------------|
B|------------------------------------------------12/14-12-----------------|
G|--------------9-11~-9------9-11~-9---------9-------------13--------------|
D|----9-11-9-11---------11-9---------11-9-11------------------b13-11-14----|
A|-------------------------------------------------------------------------|
E|-------------------------------------------------------------------------|


Refrão:
                       B
Oh oh oh oh oh oh oh ohoho
                             E
Are they laughing at or with me
                      B
oh oh oh oh oh oh oh ohoho
                               E
Why can't we just say what we mean
Outro:

E|----------------------------------------|
B|----------------------------------------|
G|----9-9-6-9-6-------9-9-6-9-6-----------|   (2x)
D|--------------9-6-9-----------9-6-------|
A|----------------------------------7\----|
E|----------------------------------------|



E|----------9-12-12-9------------------|
B|----12-12-----------12-9-12/14-12----|
G|-------------------------------------|
D|-------------------------------------|
A|-------------------------------------|
E|-------------------------------------|



E|-----------------------------|
B|---9-7------------9-7--------|
G|-------9-8-6\4--------9-9----|
D|-----------------------------|
A|-----------------------------|
E|-----------------------------|


Or.....
              B
Oh oh oh oh ohoho
              E        (4x)
Oh oh oh oh ohoho

( E )
10.492 exibições

Comentários 0

Composição: Altay Veloso / Jack Johnson
Esse não é o compositor? Avise-nos.
Contribuição: Diego Haim Correções: Fernando e mais 1 »
Consegui tocarAinda não conseguiram tocar essa música. Seja o primeiro!
    Não consegui tocar
    Exibir acordes »
    publicidade
    fechar