502 Bad Gateway


nginx

Mediocre Bad Guys

Jack Johnson

 Jack Johnson
Tom: G
		
INTRO
      1x			2x

E|---------|---------------------------------------------------------|
B|-5h7p5-0-|-5h7p5-------5h7p5--------5h7p5--------------------------|
G|---------|--------0-7---------7------------7-----------------------|
D|---------|-----------------------7------------5--------------------|
A|---------|---------------------------------------------5--7h8h9----|
E|---------|---------------------------------------3h4h5-----------7-|


SOLO

E|-/7-----------------------------------/7----------------------------------|
B|----5------------------------------------5-----------------------5/10--7/-|
G|------7-4---4-7----------4-7-4---4-7-------7-4---4-7---------4-7----------|
D|----------7------0-5h6h7-------7---------------7-----0-5h6h7--------------|
A|--------------------------------------------------------------------------|
E|--------------------------------------------------------------------------|


RIFF

A|-------5-7h8h9---|
E|-3h4h5---------7-|


Bm		      A				E
Well don't give me no comic book sad looks no more
Bm            A          E                         Bm
Please don't use those same excuses you've used before
    A	 E
hmmm hmmm


Bm                  A		      E
You told yourself so many times it's okay
  Bm
So be good to try
	A		      E
But you just don't know how to come back down
	    Bm
And now you beat me up, you break me down
D
Hoping I don't come around,
A			   G  RIFF
Kick me when I'm on the ground,
Bm
Beat me up, break me down,
D
Hoping I don't come around,
A			   G RIFF
Kick me when I'm on the ground

SOLO

Bm				E
Well how about those people I know that you know the ones I mean
    Bm
Not so good, not so bad
  A
Only know what they have
   E
And they have only what they've seen
	Bm		A			E
Them mediocre bad guys can really bring you down
	Bm			A
They can't be defeated, and you know
	E
They're never going to come around, they just

Bm                                       :
Beat me up and break me down            :
D                                       :
Hoping I don't come around              : 6x
A                            G RIFF     :
Kick me when I'm on the ground          :

INTRO


------------------------Versão 2 ( Intro, Riff e Solo )--------------------------------


INTRO

E|-----------------------------------------------------------|
B|-----------------------------------------------------------|
G|--------------7--7-----------------------------------------|
D|-9--9---------7--7---------7--7----------------------------|  2X
A|-9--9--7h9-7--5--5--7h9-7--7--7--7h9-7---------5-5-5-7/9-9-|
E|-7--7----------------------5--5--------3-3-3/7-------------|


RIFF ( preste atenção na música que você vai saber quando usar )


E|-7--x---------5--x-------0-|
B|-7--x---------5--x-------0-|
G|-7--x---------6--x-------1-|
D|-9--x---------7--x-------2-|
A|-9--x--9/5h0--7--x--5h0--2-|
E|-7--x---------5--x-------0-|


SOLO


E|---------------------------------------------|
B|-----12--------------------------------------|
G|--------9-7--------7--------------7--------7-|
D|-------------9-7-9------------7h9----9-7-9---|
A|--------------------------7h9----------------|
E|-7--------------------0----------------------|



E|-------------------------------------------------|
B|-----12-----------------------------------10-----|
G|--------9-7--------7--------------7--9/11----11/-|
D|-------------9-7-9------------7h9----------------|
A|--------------------------7h9--------------------|
E|-7--------------------0--------------------------|
Texto Colunas
Alterar tom ½ tom ½ tom
afinação acordes na letra esconder tabs mais »
17.974 exibições

Comentários 0

Composição: Altay Veloso / Jack Johnson
Esse não é o compositor? Avise-nos.
Contribuição: André Correções: Moisés »
502 Bad Gateway

502 Bad Gateway


nginx
502 Bad Gateway

502 Bad Gateway


nginx
Exibir acordes »
502 Bad Gateway

502 Bad Gateway


nginx

Cifras e tabs

Fórum Cifra Club

Aprenda

Cifra Club News

Mais Serviços Cifra Club ID

Studio Sol

©1996 - 2014 Cifra Club · o primeiro, maior e mais acessado do Brasil · 341 mil músicas · 6.3 milhões pessoas cadastradas

publicidade
fechar
502 Bad Gateway

502 Bad Gateway


nginx