Staple It Together

Jack Johnson

 Jack Johnson Compositor: Jack Johnson
Simple but cool bass line.

Verse 1
G------------------------------------------------------|
D------------------------------------------------------|
A-0-00-35--00000-3-5---0-00-35--00000-3-5-- repeat x4 -|
E------------------------------------------------------|

Chorus 1
G------------------------------------------------------|
D-7-77-50--77777-----7-77-50-77777---------------------|
A----------------53----------------53------------------|
E------------------------------------------------------|

Verse 2
G------------------------------------------------------|
D------------------------------------------------------|
A-0-00-35--00000-3-5---0-00-35--00000-3-5-- repeat x3 -|
E------------------------------------------------------|

Chorus 2
G------------------------------------------------------|
D-7-77-50--77777-----7-77-50-77777---------------------|
A----------------53----------------53------------------|
E------------------------------------------------------|

Bridge
G------------------------------------------------------|
D------------------------------------------------------|
A---0-0------0-0------0-0------0-0---------------------|
E------------------------------------------------------|

Verse 3
G------------------------------------------------------|
D------------------------------------------------------|
A-0-00-35--00000-3-5---0-00-35--00000-3-5--------------| pause for 4 bars then:
E------------------------------------------------------|

G------------------------------------------------------|
D------------------------------------------------------|
A-0-00-35--00000-3-5---0-00-35--00000-3-5--------------|
E------------------------------------------------------|

Chorus 3
G------------------------------------------------------|
D-7-77-50--77777-----7-77-50-77777---------------------|
A----------------53----------------53------ repeat x2 -|
E------------------------------------------------------|

Outro
G------------------------------------------------------|
D------------------------------------------------------|
A-0-00-35--00000-3-5---0-00-35--00000-3-5--------------|
E------------------------------------------------------|

G------------------------------------------------------|
D-7-77-50--77777-----7-77-50-77777---------------------|
A----------------53----------------53-----------0~-----|
E------------------------------------------------------|
1.246 exibições

Comentários 0

Composição: Altay Veloso / Jack Johnson
Esse não é o compositor? Avise-nos.
Consegui tocarAinda não conseguiram tocar essa música. Seja o primeiro!
    Não consegui tocar
    publicidade
    fechar