Wisemen

James Blunt

 James Blunt
Tom: G
		
Intro Tab is according to capo e.g 0=3 because capo is on 3rd fret

Capo 3

Intro


--6----6-5-----5-----5-3-----------|
----8-----6-----6-------5----------| 2X
------7-----7-----5-------5--------|
-----------------------------------|
-----------------------------------| 
-----------------------------------|


Then Em Bm D A 2X picked after intro riff is played through twice

Em
She said to me,
Bm
Go steady on me,
D                          A
Won't you tell me what the wisemen said when they,
Em
Came down from heaven,
Bm
Smoked nine till seven,
D               A
All the stuff that they could find,
Em
But they,
Couldn't escape from you,
Bm
Couldn't be free of you,
D            A
And now they know there's no way out,
Em
And they're,         Bm
Really sorry now for what they've done,
          D                             A
They were three wise men just trying to have some fun,

CHORUS
Am         C
Look who's alone now,
        G
Its not me,
        D
Its not me,
Am               C                   G               D
Those three wise men they've got her standing by the sea,
Am            F
You gotta ask yourself the question,
G             D
Where are you now?
Am            C
You gotta ask yourself the question,
G             D
Where are you now?

Em
Really sorry now,
Bm
They weren't to know
         D                 A
They got caught up in your talent show,
          Em                                Bm
With your benictor little bastards and your fancy dress,
         D                    A
Who just judge each other and try to impress,

But they,
Em
Couldn't escape from you,
Bm
Couldn't be freed of you,
    D        A
And now they know there's no way out,

And they're,
Em                   Bm
Really sorry now for what they've done,
               D                             A
They were just three wise men just trying to have some fun,

CHORUS

Am C 4X

Solo Tab
Not according to capo-where it says 8 etc simply play 8 on guitar



    Am        C             G            D
--------------------------------8-6b^-8---------------------|
----------------------------6-8----------6-4---6-4----------|
----8b^-5-----5-8----5-8---------------------5-----5--------|
----------8-------------------------------------------------|
------------------------------------------------------------|
------------------------------------------------------------|


    Am        C           G          D
--------------11-11/10-10/8-8/6---6-6/8-8-8----------------|
----------11--------------------8--------------------------|
----8b^-5--------------------------------------------------|
-----------------------------------------------------------|
-----------------------------------------------------------|
-----------------------------------------------------------|


   Am           C                   G           D
-------------11-11-11-11-10-10-8---11b^11b^-11----------------------------|
------------------------------------------------13-11-13b^-13-------------|
--------------------------------------------------------------------------|
-------5------------------------------------------------------------------|
--------------------------------------------------------------------------|
--------------------------------------------------------------------------|


   Am     C            G                  D
--------------------------------------------------------------------------|
------------------------------------------11-11---13-13-13^-^-^-----------|
----8--5-------------5------8-5-8----12-----------------------------------|
----------5--8-8-8------5/8-----------------------------------------------|
--------------------------------------------------------------------------|
--------------------------------------------------------------------------|


CHORUS
G             D
Where are you now?
G             D
Where are you now?
Am        F
Gotta ask yourself the question,
G             D
Where are you now?                              2X

Comentários 0

Composição: James Blunt / Jimmy Hogarth / Mark Tremonti / S. Combs / Sacha Skarbek
Esse não é o compositor? Avise-nos.
Contribuição: Dedé_3001 Correções: _Igorg_ e mais 2 »
Exibir acordes »
publicidade
fechar