James Blunt

Wisemen

69.960 exibições
Tom: D (com acordes na forma de B) Capotraste na 3ª casa
Capo 3

Intro


--3----3-2-----2-----2-0-----------|
----5------3-----3-------2---------| 2X
------4------4-----2-------2-------|
-----------------------------------|
-----------------------------------| 
-----------------------------------|


Then Em Bm D A 2X picked after intro riff is played through twice

Em
She said to me,
Bm
Go steady on me,
D                          A
Won't you tell me what the wisemen said when they,
Em
Came down from heaven,
Bm
Smoked nine till seven,
D               A
All the stuff that they could find,
Em
But they,
Couldn't escape from you,
Bm
Couldn't be free of you,
D            A
And now they know there's no way out,
G
And they're,         
Really sorry now for what they've done,
          A
They were three wise men just trying to have some fun,

CHORUS
Am         C
Look who's alone now,
        G
Its not me,
        D
Its not me,
Am              C                   G           D
Those three wisemen they've got a semi by the sea,
Am            F
You gotta ask yourself the question,
G             D
Where are you now?
Am            F
You gotta ask yourself the question,
G             D
Where are you now?

Em
Really sorry now,
Bm
They weren't to know
         D                 A
They got caught up in your talent show,
          Em                                Bm
With your benictor little bastards and your fancy dress,
         D                    A
Who just judge each other and try to impress,

But they,
Em
Couldn't escape from you,
Bm
Couldn't be freed of you,
    D        A
And now they know there's no way out,

And they're,
G
Really sorry now for what they've done,
               A
They were just three wise men just trying to have some fun,

CHORUS

Am C 4X

Solo Tab
Not according to capo



     Am        C             G            D
--------------------------------8-6b^-8---------------------|
----------------------------6-8----------6-4---6-4----------|
----8b^-5-----5-8----5-8---------------------5-----5--------|
----------8-------------------------------------------------|
------------------------------------------------------------|
------------------------------------------------------------|


     Am        C           G          D
--------------11-11/10-10/8-8/6---6-6/8-8-8----------------|
----------11--------------------8--------------------------|
----8b^-5--------------------------------------------------|
-----------------------------------------------------------|
-----------------------------------------------------------|
-----------------------------------------------------------|


    Am           C                   G           D
-------------11-11-11-11-10-10-8---11b^11b^-11----------------------------|
------------------------------------------------13-11-13b^-13-------------|
--------------------------------------------------------------------------|
-------5------------------------------------------------------------------|
--------------------------------------------------------------------------|
--------------------------------------------------------------------------|


    Am     C            G                  D
--------------------------------------------------------------------------|
------------------------------------------11-11---13-13-13^-^-^-----------|
----8--5-------------5------8-5-8----12-----------------------------------|
----------5--8-8-8------5/8-----------------------------------------------|
--------------------------------------------------------------------------|
--------------------------------------------------------------------------|


CHORUS
G             D
Where are you now?
G             D
Where are you now?
Am        F
Gotta ask yourself the question,
G             D
Where are you now?                              2X
    Composição: James Blunt / Jimmy Hogarth / Sacha SkarbekColaboração e revisão:
    • _Igorg_
    • Dedé_3001
    • Luis
    • Tomator
    • Juninh00
    • +1

    Comentários 0

    140 .
    140 cancelar

    conseguiu tocar?

    • Miguel2010
    • gnmcastro
    • NilsonSales
    • oisnap
    • Thaís
    • Vitor
    • caleu
    • •••

    covers

    Grave um vídeo tocando Wisemen e mande pra gente!

    Ex.: http://www.youtube.com/watch?v=0IvSvIwGdwk
    ver covers de outras músicas »
    0:00 / 0:00

    Capítulos

      4 versões de Guitar Proformatodownloadscontribuição
      play/pausefechar subir/descer velocidade
      6ª corda E5ª corda A4ª corda D3ª corda G2ª corda B1ª corda E
        acordes
        publicidad
        fechar
        ok