Altitudes

Jason Becker

Sem foto do Jason Becker
Tom: G
		
( Bm D  Bm F#sus4  F# )
                «          «     «

-----------------------------------------------------------------------------
--------------14b~-------11b---11b~----rb11~-----11^12^11^14---15b~----------
-/11~--11-11-----------------------------------------------------------------
-----------------------------------------------------------------------------
-----------------------------------------------------------------------------
-----------------------------------------------------------------------------



------------------------------9----9-12-10-9-/15-14^15^14--------------------
--15b--rb15-----14~---------10---10----------------------15------------------
--------------------------11----11-------------------------16-----11~-------
-----------------------------------------------------------------------------
-----------------------------------------------------------------------------
-----------------------------------------------------------------------------

            «        «     «     «       «

-----------------------------------------------------------------------------
----------14b~-----11b---11b---11b-----11b----rb11--12b----rb11~---11^12^11^-
-11--11----------------------------------------------------------------------
-----------------------------------------------------------------------------
-----------------------------------------------------------------------------
-----------------------------------------------------------------------------



----------------------------15-14--------------------10-14-15--17-14-15------
-14---15b~--rb-17b~-----17b-------17-15-14---------12------------------------
------------------------------------------16-15~-----------------------------
-----------------------------------------------------------------------------
-----------------------------------------------------------------------------
-----------------------------------------------------------------------------



--------------------14-15-17-12-14-15----------------------------------------
-17-14-15--17-14-15-------------------12-14-15-------------------------------
-----------------------------------------------11--------------11-12-14------
-------------------------------------------------11-12-9-11--14--------------
-----------------------------------------------------------------------------
-----------------------------------------------------------------------------



-----------------------------------------------------------------------------
-----------------------------------------------------------------------------
-----------------------------------------------------------------------------
-11-9-11~--------------------------------------------------------------------
-----------------------------------------------------------------------------
-----------------------------------------------------------------------------

                    «

-----------------------------------------------------------------------------
------------------14b~-------------------------15b--rb15--15b~---------------
--/11~----11--11---------11-11--12~----12--12-------------------12--12--12---
-----------------------------------------------------------------------------
-----------------------------------------------------------------------------
-----------------------------------------------------------------------------

                                         «                      «

-----------------------------------------------------------------------------
----------------17b--rb17-17b~-----19--19b---rb19--17^15------19b---rb19-^17^
--/15~------15---------------------------------------------------------------
-----------------------------------------------------------------------------
-----------------------------------------------------------------------------
-----------------------------------------------------------------------------


                                                                   «     t

------------------14---------------------------------------------------------
--15---17b~----17b--17-14----------------------------------------14b---(18)--
-------------------------16-16-15-12-15-16-15-12-11~-----11-11--------------
-----------------------------------------------------------------------------
-----------------------------------------------------------------------------
-----------------------------------------------------------------------------

    «

-----------------------------------------------------------------------------
--14b~----------------------------15b--rb15-15b~---------------------17b--rb-
---------11--11---12~---12-12-12-----------------12-12-12-15~---15-15--------
-----------------------------------------------------------------------------
-----------------------------------------------------------------------------
-----------------------------------------------------------------------------

                       w/bar          «

-----------------------------------------------------------------------------
-17---17b~----11-12-14-14b«~--(^15)^14b~-----14-14-14--16b~-----16b--rb16----
-----------------------------------------------------------------------------
-----------------------------------------------------------------------------
-----------------------------------------------------------------------------
-----------------------------------------------------------------------------



-----------------------------------------------------------------------------
----14~-----14-18^14^18---17b~-----------------------------------------------
-----------------------------------------------------------------------------
-----------------------------------------------------------------------------
-----------------------------------------------------------------------------
-----------------------------------------------------------------------------

       «            «                        «      «           «

-----------------------------------------------------------------------------
------7b--b--rb7----------------------------------11b--rb11---11b------------
-------------------8b~----7--6--7~--9~-----10b~------------------------------
--9~-------------------------------------------------------------------------
-----------------------------------------------------------------------------
-----------------------------------------------------------------------------

                                                        «              «

------------------7-----10---14-----17~----17^14-----------------------------
-7--8---7^8^7--7---7------7----7----------------15----14b-----rb14--(14b)-rb-
-------------7---------------------------------------------------------------
-----------------------------------------------------------------------------
-----------------------------------------------------------------------------
-----------------------------------------------------------------------------



-----------------------------------------------------------------------------
-^14---14-12^14^12-------------------------14-12^14^12-----------------------
------------------12--11~-----------------------------12-11---11-9-7~--------
----------------------------11b«---rb11~-------------------------------------
-----------------------------------------------------------------------------
-----------------------------------------------------------------------------



-----------------------------------------------------------------------------
-----------------------------------------------------------------------------
--7--4^7-/9~----7-6^7~--9~---10b«~---11-12--11b«--rb11^9-11~-----9---7^9^7---
-----------------------------------------------------------------------------
-----------------------------------------------------------------------------
-----------------------------------------------------------------------------



-----------------------------------------------------------------------------
---------------------------------------------------------------------12~-----
-6--7---9--7-6-----------------6--6b«~------9---9~----11--9----7~------------
-----------------------------9----------------9------------------------------
-----------------7-5-4-----9-------------------------------------------------
----------------------7------------------------------------------------------



--/14~-----------------------------------------------------------------------
-----------------------------------------------------------------------------
-----------------------------------------------------------------------------
-----------------------------------------------------------------------------
-----------------------------------------------------------------------------
-----------------------------------------------------------------------------



-----------------------------------------------------------------------------
-----------------------------------------------------------------------------
-----------------------------------------------------------------------------
-------------------------7---------------------------------------------------
-------7-----------7-9-10-10-9-7-10-9-7--------------------------------------
-7-9-10-10-9-7-9-10--------------------10-9-7~-------------------------------




-12-7-----7---12-7-----7---12-7------------3-7-------------------------------
-----8--8---------8--8---------8----------5----------------------------------
-------9------------9-----------9--4----4-----------------------------------
-------------------------------------5--5------------------------------------
--------------------------------------7--------------------------------------
-----------------------------------------------------------------------------



-12-9-----9--12-9-----9----14-9-----9---12-9-----9---------------------------
-----10-10-------10-10---------10-10--------10-10----------------------------
-------9-----------9-------------9------------9------------------------------
-----------------------------------------------------------------------------
-----------------------------------------------------------------------------
-----------------------------------------------------------------------------



--14-10------10-14-10------10-14-10------10-14-10------10--------------------
-------12--12--------12--12--------12--12--------12--12----------------------
---------11------------11------------11------------11------------------------
-----------------------------------------------------------------------------
-----------------------------------------------------------------------------
-----------------------------------------------------------------------------



-19-14------------------10-14--19-14------------------10-14------------------
------15--------------12------------15--------------12-----------------------
--------16-11------11----------------16-11------11-------------------------
--------------12--12------------------------12--12---------------------------
----------------14----------------------------14-----------------------------
-----------------------------------------------------------------------------



-17-14------14--17-14------14--19-14------14--17-14------14------------------
------15--15---------15--15---------15--15---------15--15--------------------
--------14-------------14-------------14-------------14----------------------
-----------------------------------------------------------------------------
-----------------------------------------------------------------------------
-----------------------------------------------------------------------------



--18-14------14---18-14------14--20-14------14--18-14------14----------------
-------14--14----------14--14---------14--14---------14--14------------------
---------15--------------15-------------15-------------15--------------------
-----------------------------------------------------------------------------
-----------------------------------------------------------------------------
-----------------------------------------------------------------------------



-19-14------------------10-14--19-14------------------10-14------------------
------15--------------12------------15--------------12-----------------------
--------16-11------11----------------16-11------11-------------------------
--------------12--12------------------------12--12---------------------------
----------------14----------------------------14-----------------------------
-----------------------------------------------------------------------------



-19-14------------------10-14------14-10--15-10--14-10--12-10----------------
------15--------------12----------------12-----12-----12-----12--------------
--------16-11------11-------------------------------------------------------
--------------12--12---------------------------------------------------------
----------------14-----------------------------------------------------------
-----------------------------------------------------------------------------




-15-10------10-15-10-----------------------15-10------10---------------------
------12--12--------12--------------------------12--12-----------------------
--------12------------127-------7-12-7-----------12-------------------------
---------------------------9---9--------9------------------------------------
-----------------------------10----------------------------------------------
-----------------------------------------------------------------------------



--17-12------12-17-12------12-17-12------------------------------------------
-------14--14--------14--14--------14----------------------------------------
---------14------------14------------149------9-14-9------------------------
-----------------------------------------11--11------11----------------------
-------------------------------------------12----------12--------------------
-----------------------------------------------------------------------------



----------------------9-14-9------9-14--------14-18-14-----------------------
--------------------11------11--11----------14--------14---------------------
------11----------11----------11----------15------------15-------------------
--8-11--11-8----11-----------------------------------------------------------
-9----------9-13-------------------------------------------------------------
-----------------------------------------------------------------------------




-------------17-22-17--------------------------------------------------------
-----------19--------19------------------------------------------------------
---------19------------1914--------14-19-14------14-19-14-------------------
-------19-------------------16----16--------16--16--------16-----------------
--17-21-----------------------17--------------17------------17---------------
-----------------------------------------------------------------------------



------------------------------------------------------------12-14-12--12-14-15
----------------------------------12-14--12-14-15---12-14-15--------15--------
--------9-11-9--9-11-12--12-14-16------16-------------------------------------
-9-11-12------12--------------------------------------------------------------
------------------------------------------------------------------------------
------------------------------------------------------------------------------



-------------------------------------------------------12-14-12--12-14-15----
--------------------------11-12-14-15-14-12-10-12-14-15--------15------------
--------------9-11-9-11-12---------------------------------------------------
-12-11-9-11-12---------------------------------------------------------------
-----------------------------------------------------------------------------
-----------------------------------------------------------------------------



--/15-14--14-15-17----17-15--15-17-19---19-17--17-19-21-22-------------------
--------17-----------------19----------------20------------------------------
-----------------------------------------------------------------------------
-----------------------------------------------------------------------------
-----------------------------------------------------------------------------
-----------------------------------------------------------------------------



-----------------------------------------------------------------------------
-----------------------------------------------------------------------------
------------------------------------------------------------7-9-11-----------
-------------------------7----------------------------7-9-11-------9-11-12---
-------7-----------7-9-10-10-9-7-10-9-7---------7-9-10-----------------------
-7-9-10-10-9-7-9-10--------------------10-9-7-10-----------------------------



-----------------------------------------------------------------------------
-----------------------------------------------------------------------------
-9-11-12-14-12-11--12--------------------------------------------------------
-----------------14--14-12-11------------------------------------------------
-----------------------------------------------------------------------------
-----------------------------------------------------------------------------



-2-------2-------2---------------2-------------------------------------------
--3-2-2-3-3-2-2-3-3-2-------2---2-2-------2---3-2----------------------------
-----4-------4-------4-----4-4-4---4-----4-4-----4---------------------------
----------------------5-4-5---5-----5-4-5---5-----5-4----5-4-----------------
-----------------------------------------------------5-4----5-4--2-4---2-4-2-
--------------------------------------------------------------------2-3------



-----------------------------------------------------------------------------
--------------------3---------------5-3-2----------5-3-2---------------------
---------------2-4-6-6-4-2---------------4-2------------4-2------------------
---------2-4-5------------5-4-2-------------5-4-2----------5-4-2-------------
----2-4-5----------------------5-4---------------5--------------5------------
--3--------------------------------------------------------------------------



------------------------------------------------------------3----------------
--------------------------------------------3----------3-5-7-7-5-3--3-5-7----
--------------------------------------2-4-6--6-4-2-4-6-----------------------
----------2---------2-4-5-4-5-4-2-4-5----------------------------------------
-4-2-2-4-5-5-4-2-4-5---------------------------------------------------------
----5------------------------------------------------------------------------



--3-5-7----9-7-------7-9-10--------------------------------------------------
--------------10-8-10--------------------------------------------------------
----------------------------------------------------------------------7-9-11-
---------------------------------------------------------7-9-11-7-9-11-------
--------------------------------------------7-9-10-7-9-10--------------------
-------------------------------7-9-10-7-9-10---------------------------------




----------------------9-10-12-9-10-12---14-10--------------------------------
-------8-10-12-8-10-12-----------------------12------------------------------
-7-9-11----------------------------------------11--7------------------------
-----------------------------------------------------9-----------------------
------------------------------------------------------9----------------------
-------------------------------------------------------10-7------------------



-----------------------------------------------------------------------------
-----------------------------------------------------------------------------
--------------------------------------4-6-7--7b~----7--6--7--4~--------------
--/5~---4^5^42--4b--4--2~-----------4---------------------------------------
-----------------------------5-4-5--5----------------------------------------
-----------------------------------------------------------------------------



-------------------------------------------7-9-10---10^7~---7--7-10-7--------
-------------------------------------7-8-10------------------10------10-7~---
-3--4--6b«--rb----rb6--4~--------------------------------------------------
--------------------------------9~-------------------------------------------
-----------------------------------------------------------------------------
-----------------------------------------------------------------------------



--17b---17-15--14-------------------14---------------------------------------
-------------------------------17b-----17------------17b--17-15--------------
---------------------------------------------------------------16~-----------
-----------------------------------------------------------------------------
-----------------------------------------------------------------------------
-----------------------------------------------------------------------------



-12-10------10-12-10------10-12-10--10--14-10------10-14-10------10-14-10--10
------12--12--------12--12--------12---------12--12--------12--12--------12--
--------11------------11-----------------------11------------11--------------
-----------------------------------------------------------------------------
-----------------------------------------------------------------------------
-----------------------------------------------------------------------------



-12-10------10-12-10------10-12-10--10--10-9------9-10-9------9-10-9--9------
------12--12--------12--12--------12--------12--12------12--12------12-------
--------11------------11----------------------11----------11-----------------
-----------------------------------------------------------------------------
-----------------------------------------------------------------------------
-----------------------------------------------------------------------------



-14-10------10--19-14------14-19-14--14--------------------------------------
------12--12---------15--15--------15----------------------------------------
--------11-------------16----------------------------------------------------
-----------------------------------------------------------------------------
-----------------------------------------------------------------------------
-----------------------------------------------------------------------------



-19-15------15---22-19------19---19-15--15--17-14------14-17-14------14-17-14--14
------15--15----------20--20----------15---------15--15--------15--15--------15--
--------16--------------19-------------------------14------------14--------------
---------------------------------------------------------------------------------
---------------------------------------------------------------------------------
---------------------------------------------------------------------------------



-17-12------12-17-12------12-17-12--12---------------------------------------
------14--14--------14--14--------14-----------------------------------------
--------14------------14-----------------------------------------------------
-----------------------------------------------------------------------------
-----------------------------------------------------------------------------
-----------------------------------------------------------------------------



-15-12------12-15-12---------------------10-14-10------10-14-10------10-14-10--10
------14--14--------14---------------------------12--12--------12--12--------12--
--------14------------14-12--------12-14-----------11------------11--------------
---------------------------14-11-14----------------------------------------------
---------------------------------------------------------------------------------
---------------------------------------------------------------------------------



-14-12------12-14-12------12-14-12--12--14-10------10-14-10------10-14-10--10
------14--14--------14--14--------14---------12--12--------12--12--------12--
--------11------------11-----------------------11------------11--------------
-----------------------------------------------------------------------------
-----------------------------------------------------------------------------
-----------------------------------------------------------------------------



-16-13------13---19-16------16---22-19--19---21-17---------------------------
------15--15----------18--18----------21----------17-------------------------
--------16--------------19--------------------------16-----------------------
-----------------------------------------------------------------------------
-----------------------------------------------------------------------------
-----------------------------------------------------------------------------



-17-17-17-12------12-17-12--12---15-12----------12-9---------9-6-6-----------
------------14--14--------14----------14------------11----------8------------
--------------14------------------------15-12---------12-9-------------------
---------------------------------------------14-----------11-----------------
-----------------------------------------------------------------------------
-----------------------------------------------------------------------------



-15-12-----------------------------------------------------------------------
------14---------------------------------------------------------------------
--------15-12-------------------------------15-------------------------------
-------------14------------------------14-17---------------------------------
---------------16-13--------------13-16--------------------------------------
--------------------15-12-15-12-15-------------------------------------------


(solo)

-----------4-----------------------------------------------------------------
--/7b~------4---7b--rb--7b--rb--9b--7~----7-4-7------------------------------
------------------------------------------------6b--rb6^4----6-4-------------
---------------------------------------------------------4------4------------
-----------------------------------------------------------------------------
-----------------------------------------------------------------------------



----------------------------------------------------------14b~---14-11-12b~--
--------------------------------4-7/9---12-9-12--14-12-14--------------------
--6b---6b--rb^4--------------4-6---------------------------------------------
----------------4-2--------6-------------------------------------------------
--------------------4-2~-----------------------------------------------------
-----------------------------------------------------------------------------

                                               t

--12-11---19b~---16-19--------16-18-19--22b--(23)--rb22b~--------------------
----------------------19b~---------------------------------------------------
-----------------------------------------------------------------------------
-----------------------------------------------------------------------------
-----------------------------------------------------------------------------
-----------------------------------------------------------------------------



-----------------------------------------------------------------------------
--17b-17b~-----17-15-14------------------------------------------------------
-------------------------14-11-----------------------------------------------
------------------------------12-11------------------------------------------
-----------------------------------12-9-------------5-2-4-5-4b«-rb4~---------
---------------------------------------10-9-7----5-2-------------------------



-----------------------------------------------------------------------------
-----------------------------------------------------------------------5-7-8-
---------------------------------------4-6-7--7-6-4-6-4-----4-6-7-7-6-4------
--------2-4-5-/-7-5-4-5-4---------4-5-7----------------7-5-7-----------------
-5-2-4-5-----------------7-5-4-5-7-------------------------------------------
-----------------------------------------------------------------------------


             p.h.  p.h.   p.h. p.h.

-----------------------------------------------------------------------------
-/-10-8-7--------------------------------------------------------------------
---------9----11~----------11----11---11b«---rb11--b1«---rb11~--------------
-------------------9-9~---9----9---------------------------------------------
-----------------------------------------------------------------------------
-----------------------------------------------------------------------------

               w/bar

----------------------------9-12-9--------------------12-17-12---------------
--------/12--10-10~-------10------10----------------14--------14-------------
-11-11-------------------9----------9-------------14------------14-----------
-------------------------------------11---------14----------------14---------
---------------------------------------12--12-16--------------------16-12-16-
-----------------------------------------------------------------------------



-------12-17-15--------------------------------------------------------------
-----14------------10-10-8---------------------------------------------------
---14---------------------9--------------------------------------------------
-14------------------------11-7-----7---------------------9-11-9-------9-11--
-------------------------------10-9--10-9b«--rb9~-----9-10------10-9-10------
-----------------------------------------------------------------------------



----------------------------------------10-12-14-12-10-----------------------
--------------------------------10-12-14--------------14-12-10---------------
---9-11-12-11-12---------9-11-12------------------------------12-11-9--------
-12----------9--9-9-11-12--------------------------------------------12-11-9-
-----------------------------------------------------------------------------
-----------------------------------------------------------------------------

                                                               w/bar

-----------------------------10-12-14-12-10--------------10-12-14~-----------
---------------------10-12-14--------------14-12-10-12-14--------------------
------9-------9-11-12--------------------------------------------------------
-11-12-9-11-12---------------------------------------------------------------
-----------------------------------------------------------------------------
-----------------------------------------------------------------------------


           w/bar                   w/bar      3x

---10^14^109~----14b~--12--------12-16---17-12------------------------------
--------------------------14----14-------------14----------------------------
-------------------------------------------------14--------------------------
---------------------------------------------------14------------------------
-----------------------------------------------------16-12-------------------
-----------------------------------------------------------------------------



---15-10--------------------10----10-14-10------10-----15-10------10-15-10---
--------11----------------11----11--------11--11------------12--12-----------
----------12------------12------------------12----------------12-------------
------------12--------12-----------------------------------------------------
--------------13-10-13-------------------------------------------------------
-----------------------------------------------------------------------------



-10-7----------------10-15--/19-14------14-21-------------------------------
------8-------------12-------------15--15------------------------------------
-------7----------12-----------------16--------------------------------------
--------9-------12-----------------------------------------------------------
---------10---14-------------------------------------------------------------
-----------------------------------------------------------------------------



-----------------------------------------------------------------------------
-----------------------------------------------------------------------------
-----------------------------------------------------------------------------
-------------------------7-----------------------------8-------------8-10-8--
-------7-----------7-9-10-10-9-7-10-9-7---------8-10-12-12-10-8-10-12--------
-7-9-10-10-9-7-9-10---------------------10-9-7-------------------------------



-----------------------------------------------------------------------------
-----------------------------------------------------------------------------
-----------------------------------------------------------------------------
---------------8-10-8-------------8------------------------------------------
-12-10-8-10-12-------12-10-8-10-12-12-10-8-----------------------------------
-----------------------------------------------------------------------------


          «   tap     «

----7-9--9b---(13)--^(9b)--rb9-7---------------------------------------------
--7------------------------------7---10--8-8~--------------------------------
------------------------------------------------9---11---12---14---12-11-9---
-----------------------------------------------------------------------------
-----------------------------------------------------------------------------
-----------------------------------------------------------------------------



-----------------------------------------------------------------------------
-10~-------------------------------------------------------------------------
-----9/11~-------------------------------------------------------------------
-----------------------------------------------------------------------------
-----------------------------------------------------------------------------
-----------------------------------------------------------------------------

               «    tap       «

-----13-15---15b----(19)---^(15b)---rb15-13----------------------------------
--13---------------------------------------13--16--14-14~--------------------
-----------------------------------------------------------------------------
-----------------------------------------------------------------------------
-----------------------------------------------------------------------------
-----------------------------------------------------------------------------



-----------------------------------------------------------------------------
-----------------------------16----------------------------------------------
--15--17---18-/-20--18-17-15-----15--17~-------------------------------------
-----------------------------------------------------------------------------
-----------------------------------------------------------------------------
-----------------------------------------------------------------------------


          «   tap     «

----7-9--9b---(13)--^(9b)--rb9-7---------------------------------------------
--7------------------------------7---10--8-8~--------------------------------
------------------------------------------------9---11---12---14---12-11-9---
-----------------------------------------------------------------------------
-----------------------------------------------------------------------------
-----------------------------------------------------------------------------



----------------/14-12-10----------------------------------------------------
-10~----------------------14-12-10-------------------------------------------
-----9/11~------------------------12-11-9------------------------------------
-----------------------------------------12-11--12-11-9-7-------------------
-----------------------------------------------------------10-9-7------------
-----------------------------------------------------------------10-9-7-9-10-


                                  w/bar    w/bar  w/bar   w/bar

-----------------------------------------------------------------------------
--------------------8-10-12----------12--------------------------------------
--------------7-9-11------------------------12-----11------10~---------------
--------7-9-11---------------------------------------------------------------
--7-9-10---------------------------------------------------------------------
-----------------------------------------------------------------------------


Comentários 1

Composição: Jason Becker / Wagninho
Esse não é o compositor? Avise-nos.
Consegui tocarAinda não conseguiram tocar essa música. Seja o primeiro!
    Não consegui tocar
    Exibir acordes »
    publicidade
    fechar