Right Kind Of Phrase

Jason Mraz

 Jason Mraz
Tom: B
		
Standard Tuning
No Capo

Intro

e----------------------------------------------- ---------------------------------------|
b----------7----------2-----------7---8--7--5--- ----------7----------2---------7-------|
g-----7----7-----2----2-----7-----7---9--7--6--- -----7----7-----2----2----7----7-------|
d-----7----------2----------7------------------- -----7----------2---------7------------|
a-------------------------------------7--5--4--- ---------------------------------------|
e---7----7-----2----2-----7-----7--------------- ---7----7-----2----2----7----7----7/---|


Part 1
Verse
(album)


e-----------------------------------------------------------------|
b--------------------------------------------------2----------7---|
g-----7----7-----7----7------------7----7-----2----2-----7----7---|
d-----7----7-----7----7------------7----7-----2----------7--------|
a-------------------------(x7)------------------------------------|
e---7----7-----6----6------------7----7-----2----2-----7----7-----|


(live)
a) first verse

e--------------------------------------------|
b----------7----------2------------------7---|
g-----7----7-----2----2-------------7----7---|
d-----7----------2------------------7--------|
a-------------------------(x7)---------------|
e---7----7-----2----2------------7-----7-----|


b) second verse

e------------------------------------------------ --------------------------------------------|
b----------7----------2-----------7-------------- ------------------7--------2---------7------|
g-----7----7-----2----2------7----7-----7----7--- ---7---7-----7----7----2---2----7----7------|
d-----7----------2-----------7----------7----7--- ---7---7-----7---------2--------7-----------|
a------------------------------------------------ --------------------------------------------|
e---7----7-----2----2-----7-----7-----6----6----- ---7---6---7----7----2----2---7----7----7---|


c) third verse

e----------------------------------------------------- -------------------------------------|
b----------7----------2----------------7-------------- -------------------------------------|
g-----7----7-----2----2-----------7----7-----7----7--- -----7---7-----7---7---------7---2---|
d-----7----------2----------------7----------7----7--- -----7---7-----7---7---------7---2---|
a-----------------------(x3)-------------------------- ----------------------(x2)-----------|
e---7----7-----2----2----------7-----7-----6----6----- ---7---7-----6---6-----------7---2---|


d) fourth verse

e------------------------------------------------ ----------------------------------------------------|
b----------7----------2-----------7-------------- --------------------------7---------2--------7------|
g-----7----7-----2----2------7----7-----7----7--- ---7---7---7---7~-----7---7----2----2---7----7------|
d-----7----------2-----------7----------7----7--- ---7---7---7---7~-----7--------2--------7-----------|
a------------------------------------------------ ----------------------------------------------------|
e---7----7-----2----2-----7-----7-----6----6----- ---7---6---7---6----7---7----2---2---7----7----7----|



Part 2
Chorus

e------------------- ----------------------------------------------------------------------|
b---8-------8------- ---8-------------------2--------7-------7--------------2---------2----|
g---7---7---7---7--- ---7---7----7-----2----2----7---7---7---7----7-----2---2----2----2----|
d---9---7---9---7--- ---9---7----7-----2---------7-------7--------7-----2--------2---------|
a---7-------7------- ---7------------------------------------------------------------------|
e-------7-------7--- -------7----6---2----2----7---7----7---7-----6---2----2---2----2------|



Part 3

e-------7-------------------------------------------------|
b---7---8---7---2----------------7--------2---------------|
g---7---7---7---2------------7---7----2---2---------------|
d---7---9---7---2---(x3)-----7--------2-------------------|
a-------7-------------------------------------------------|
e---7-------7---2----------7---7----2---2----7--0h2--7~---|
1.042 exibições

Comentários 0

Composição: jason mraz
Esse não é o compositor? Avise-nos.
Consegui tocarAinda não conseguiram tocar essa música. Seja o primeiro!
    Não consegui tocar
    Exibir acordes »
    publicidade
    fechar