Song For A Friend

Jason Mraz

 Jason Mraz
Tom: D
		
(verso)                (ponte)
    (1) (2) (3) (1)    (4) (5) (1) (2) (3)

E|----0---2---0---0------0---0---0---2---0-|
B|----3---2---3---3------3---2---3---2---3-|
G|----4---4---4---4------4---0---4---4---4-|
D|----4---4---4---4------5---2---4---4---4-|
A|----2---0---x---2------2---0---2---0---x-|
E|----0---x---3---0------0---x---0---x---3-|


(intro / verso)
  (1)                     (2)

E|-------0----0-----------------2-------|
B|-------3------3------3--------2-------|
G|-------4-----------4----------4-------|
D|----4-----4-----4-----------4---------|
A|--2--------------------2--0-----------|
E|--------------------------------------|


                 (3)

E|----2----------------0---0------------|
B|------2-----2--------3-----3-----3----|
G|----------4----------4---------4------|
D|--4-----4----------4---4-----4--------|
A|--------------0-----------------------|
E|-----------------3--------------------|


        (1)

E|---------0-----0---|
B|---------3-----3---|
G|---------4-----4---|
D|-------------------|
A|-------2---0h2-----|
E|--3--0-------------|
4.570 exibições

Comentários 0

Composição: Andy McCluskey / Dan Wilson / Franz Gruber / Jay Brannan / Jesse Counts / Joe Steen / M. Wilhelm / Victor Popular Young
Esse não é o compositor? Avise-nos.
Contribuição: lizpinkrock Correções: LDuds »
Consegui tocarAinda não conseguiram tocar essa música. Seja o primeiro!
    Não consegui tocar
    Exibir acordes »
    publicidade
    fechar