Atrevida

Jeann e Julio

 Jeann e Julio Compositor: Julio camargo
Tom: A
		

E|-----------------------------------------------------10-9--10/12-----------|
B|-------------------------------10-9-10---10-9-10---10----10---------5/7/5--|
G|-------------------7-6----------------------------------------------4/6/4--|
D|--7-6-7---7-6-7---7---7-7/9------------------------------------------------|
A|---------------------------------------------------------------------------|
E|---------------------------------------------------------------------------|


    A       F#m            D          E
Atrevida, inconstante, complicada demais
Me atiça depois some, tanto fez tanto faz
Perigosa, provocante, não se prende a ninguém
Mas me fez prisioneiro, sem defesa gamei

Então vem,
A                E                    F#m
   Me usa, me abusa, me confunda, me convença
D
 Que eu sou teu
A                E                    F#m
   Me joga todo charme, me esfria, me aqueça
D
Então vem,
A                E                    F#m
   Me faz o seu brinquedo, me coloque na coleira
D
Que eu sou teu
A                E                    F#m
   Só por um minuto ou por uma vida inteira
D            A
Mas venha...

(solo)

E|--------------------------------|---------------------------------|
B|-----5/7/5----------------------|---5/7/5-------------------------|
G|-------------6/7/6---7-6--------|-----------7-7/9-----------------|
D|--7--------7-------7-----9-7----|-7-------7-----------------------|
A|--------------------------------|---------------------------------|
E|--------------------------------|---------------------------------|
8.372 exibições

Comentários 0

Composição: Julio Camargo
Esse não é o compositor? Avise-nos.
Contribuição: ramos_paulo Correções: Belli e mais 1 »
Exibir acordes »
publicidade
fechar