Johnny B. Goode

Jerry Lee Lewis

 Jerry Lee Lewis
Tom: C
		
Johnny B. Goode - Back to the Future Soundtrack - 
Jerry Lee Lewis Version  
Musica Original de Chuck Berry

obs: Esta versão ao é a mesma tocada por Marty McFly (Michael J.
 fox) no filme "De Volta para o Futuro" de 1985. 


INTRO


E|------------|-4/6-6-6-4/6-6-6-4/6-6-|-6---------------|----------------|
B|----------6-|-4/6-6-6-4/6-6-6-4/6-6-|-6-9-8-6---------|----------------|
G|------6h7---|-----------------------|---------6h7-----|----------------|
D|----8-------|-----------------------|-------------8-6-|-8-8-8-8-8-8-8--|
A|------------|-----------------------|-----------------|-8-8-8-8-8-8-8--|
E|------------|-----------------------|-----------------|----------------|



E|--------------------|-6---6------6------|-6------6------6--------|
B|---6---8-6----------|-6---6------6------|-6------6------6--------|
G|---6-7-8-6h7---8b10-|-------8b10---8b10-|---8b10---8b10---8b10---|
D|-------------8------|-------------------|------------------------|
A|--------------------|-------------------|------------------------|
E|--------------------|-------------------|------------------------|



E|--6------6------|-6------6------6-|------6-9-8-6-------------------|
B|--6------6------|-6------6------6-|--------------9-8-6-----8---6---|
G|----8b10---8b10-|---8b10---8b10---|-8b10---------------6-7-8---6h7-|
D|----------------|-----------------|--------------------------8-----|
A|----------------|-----------------|--------------------------------|
E|----------------|-----------------|--------------------------------|




E|-------------------|---------------|
B|-----------8p6-----|---------------|
G|------6----8p6h7---|---------------|
D|--8-8---8--------8-|--8-8-8-8-8-8--|
A|-------------------|--8-8-8-8-8-8--|
E|-------------------|---------------|


Agora vai alternando essas três notas nessa sequência:


E|---------------------------|---------------------------|
B|---------------------------|---------------------------|
G|---------------------------|---------------------------|
D|---------------------------|--8--8--8--10--8--8--8--10-|
A|--8--8--8--10--8--8--8--10-|--6--6--6---6--6--6--6--6--|
E|--6--6--6---6--6--6--6---6-|---------------------------|



E|---------------------------|---------------------------------|
B|---------------------------|---------------------------------|
G|---------------------------|---------------------------------|
D|---------------------------|--10--10--10--12--10--10--10--12-|
A|--8--8--8--10--8--8--8--10-|---8---8---8---8---8---8---8--8--|
E|--6--6--6---6--6--6--6---6-|---------------------------------|



E|---------------------------|
B|---------------------------|
G|---------------------------|
D|---------------------------|
A|--8--8--8--10--8--8--8--10-|
E|--6--6--6---6--6--6--6---6-|



E|---------------------------|--4/6-------6--|-------------------------|
B|---------------------------|--4/6-6-6-6-6--|-------------------------|
G|---------------------------|---------------|-------------------------|
D|---------------------------|---------------|-------------------------|
A|--8--8--8--10--8--8--8--10-|---------------|-8--8--8--10--8--8--8-10-|
E|--6--6--6---6--6--6--6---6-|---------------|-6--6--6--6---6--6--6--6-|



E|--4/6-------6--|--------------------------|
B|--4/6-6-6-6-6--|--------------------------|
G|---------------|--------------------------|
D|---------------|--------------------------|
A|---------------|-8--8--8--10--8--8--8--10-|
E|---------------|-6--6--6---6--6--6--6---6-|



no meio da música tem um solinho, é bem rapidinho:


E|--------------------------------------------------6--8b9.5--8p6----|
B|---------------6-------------6---8--6---------6-8------------------|
G|--8b10--8p6-8----6------6----6---8--6h7----/7----------------------|
D|--------------------8-6---8----8--------8--------------------------|
A|-------------------------------------------------------------------|
E|-------------------------------------------------------------------|



E|-------6-------------------------|----------------------------------|
B|--8-6----8b9r--6-----------------|-8-8-6---8-8-6---8-6-8------------|
G|-----------------6-5--------6---|-8-8-6---8-8-6---8-6-8---8b10r----|
D|----------------------8-8--8---8-|-------8-------8------------------|
A|---------------------------------|----------------------------------|
E|---------------------------------|----------------------------------|



E|-----------------6----------10-------13-15p13h15-15b17r-13-15-13--|
B|------------------------------------------------------------------|
G|--6---8--6-(6)/7---7-(7)/10----10/13------------------------------|
D|----8-------------------------------------------------------------|
A|------------------------------------------------------------------|
E|------------------------------------------------------------------|



E|--15p13----13-12-11----|------------------------------------------|
B|--------15----------13-|-(13)b15-13p11-------11-------11--------8-|
G|-----------------------|---------------13b15----13b15----11b13----|
D|-----------------------|------------------------------------------|
A|-----------------------|------------------------------------------|
E|-----------------------|------------------------------------------|



E|-------------------------|------6------------------------|
B|-------6-----------------|------6--8-6---8-6-----8-6-----|
G|--8b10---8b10--8-6-------|--6h7----8-6h7-8-6h7---8-6h7---|
D|-------------------8-6-8-|---------------------8-------8-|
A|-------------------------|-------------------------------|
E|-------------------------|-------------------------------|



E|------6----------------------|-----------------------------------------|
B|------6-x-x-8---6----8-6-----|-------8b9--8-8-8r-6-8-8b9--8-8-8r-------|
G|--6h7---x-x-8---6h7--8-6h7---|----6--8b10-8-8-8r-6-8-8b10-8-8-8r-6-----|
D|--------------x------------8-|-/8----------------------------------8-6-|
A|-----------------------------|-----------------------------------------|
E|-----------------------------|-----------------------------------------|



E|--------------------------------------------------------------------|
B|--------------------------------------------------------------------|
G|--------------------------------------------------------------------|
D|--8---x-x-x-15-15-15-15-15-15-15-14-14-13-13-12-12-11-11-10-10-9-9-|
A|--------------------------------------------------------------------|
E|--------------------------------------------------------------------|



E|------------------------------------------------|
B|------------------------------------------------|
G|------------------------------------------------|
D|--8-8-7-7-6-6-5-5-4-4-3-3-3-3-3-3-3---1---------|
A|-----------------------------------------4--1/--|
E|------------------------------------------------|



E|------------------------------------------------------------|-4/6-------6-|
B|------------------------------------------------------------|-4/6-6-6-6-6-|
G|------------------------------------------------------------|-------------|
D|------------------------------------------------------------|-------------|
A|--13-13-12-12-11-11-10-10-9-9-8-8-7-7-6-6-5-5-4-4-3-3-2-2-1-|-------------|
E|------------------------------------------------------------|-------------|



Letra

    
Deep down in Louisiana, close to New Orleans, 
Way back up in the woods among the evergreens,     
There stood a log cabin made of earth and wood 
Where lived a country boy named Johnny B. Goode
Who never ever learned to read or write so well,    
But he could play the guitar just like a ringin' a bell.


CHORUS:

Go! Go! Go, Johnny, go! Go!                  
Go, Johnny, go! Go!
Go, Johnny, go! Go!               
Go, Johnny, go! Go! Johnny B. Goode 


He used to carry his guitar in a gunny sack,
Go sit beneath the tree by the railroad track.
Old engineers would see him sittin' in the shade,
Strummin' with the rhythm that the drivers made.
When people passed him by they would stop and say,
'oh, my but that little country boy could play'

CHORUS

His mother told him, 'someday you will be a man,
You will be the leader of a big ol' band.
Many people comin' from miles around
Will hear you play your music when the sun go down.
Maybe someday your name'll be in lights,
Sayin' 'Johnny B. Goode tonight''

CHORUS
16.526 exibições

Comentários 0

Composição: Chuck Berry / Wyclef Jean
Esse não é o compositor? Avise-nos.
Contribuição: Lucas Nincao
Exibir acordes »
publicidade
fechar