Tom: C
		
(parte 1)

( C ) palm-mute
As soon as I get my head round you
I come around catching sparks off you
I get an electric charge from you
A second hand living just won`t do
(riff 1) repetir no final das Partes 1 e 2


E|-----------------------------------|
B|-----------------------------------|
G|-4/5-4/5-4/5-4/5-4/5-4/5-4/5-4/5---|
D|-4/5-4/5-4/5-4/5-4/5-4/5-4/5-4/5---|
A|-2/3-2/3-2/3-2/3-2/3-2/3-2/3-2/3---|
E|------------------------------------|


(pré-refrão)
F                  G
And the way I feel tonight
C                         		 F
I could die and I wouldn`t mind
F                                 		G
And the theres something going on inside

(refrão)
C
Makes you wanna feel, makes you wanna try
F                        		G
Makes you wanna blow the stars from the sky

(pós-refrão)
C
And I can`t stand up, I can`t cool down
F                              G                		(C F G)
I can`t get my head off the ground

(Parte 2)

C (Palm Mute)
As soon as I get my head round you
I come around catching sparks off you
And All I ever got from you
Was all I ever took from you

(riff 1)

(pré-refrão)
F                          G
And the world could die in pain
C                      F
And I wouldn`t feel no shame
F                            G
Theres nothing holding me to blame

(refrão)
C
Makes you wanna feel, makes you wanna try
F                        G
Makes you wanna blow the stars from the sky

(pós-refrão)
	C
And I`m taking myself to the dirty part of town
            F	                   G          C
Where all my troubles can be found
(solo 1)


E|--------------------------------------------------------|
B|-------------------------5------------------------------|
G|-----5---5----5----5---7---------5---7-7----------------|
D|-5/7---7----7----7---7------5/7---7-----7-5-------------|
A|--------------------------------------------------------|
E|--------------------------------------------------------|



E|--------------------------------------------------------|
B|-------------------------5------------------------------|
G|-----5---5----5----5---7-----7/9-7-5--7/9-7-5-----------|
D|-5/7---7----7----7---7----------------------------------|
A|--------------------------------------------------------|
E|--------------------------------------------------------|

(baixo do riff 1) repetir até acabar o solo e quando tocar o acorde C.


G|---------------------------|
D|---------------------------|
A|--------3---3--------------|
E|--3--5----5----------------|

(solo 2)


E|--------------------------------------------------------|
B|--------------------------------------------------------|
G|--------------------------------------------------------| (2x)
D|-------------------2-5----------------------------------|
A|-------3-3-3-5-3-5----------3-3-3--------2--------------|
E|---3-5--5---------------3-5--5---5-3-3-3----------------|


(refrão 2x)                                          
 C                                                 
Makes you wanna feel, makes you wanna try          
 F                        G                        
Makes you wanna blow the stars from the sky      
                                                  
(Pós-Refrão)                                      
 C                                                  
And I can`t stand up, I can`t cool down            
 F                   G                ( C F G )       
I can`t get my head off the ground              

(baixo do riff 1) tocar até o final da música

C	F	G
I said yeah yeah, yeah yeah
C       F       G
yeah, yeah, yeah, yeah 
1.462 exibições

Comentários 1

Composição: C. Dizeo / Joseph Hahn / Kevin Shields / Sandy M
Esse não é o compositor? Avise-nos.
Contribuição: leandrotech
Exibir acordes »
publicidade
fechar