Foxy Lady

Jimi Hendrix

 Jimi Hendrix
Tom: B
		
Intro:

E|----------------|
B|-11~~-----------|
G|-11~~-----------|
D|------------16\4|
A|----------------|
E|----------------|


                 Foxy,

   F#7(#9)
E|----5-------5-----------------|
B|----5-------5-----------------|
G|------------------------------|
D|--------4-4----------4--------|
A|-------------------------2-3-4|
E|2-2-------------2-2----5------|


                 Foxy,

   F#7(#9)
E|----5-------5-------5---------|
B|----5-------5-------5---------|
G|------------------------------|
D|--------4-4-------------------|
A|-------------------------2-3-4|
E|2-2-------------2-2----5------|


Verso:
 F#7(#9)
You know you are a cute little heart breaker

E|----5-------5-------5---------|
B|----5-------5-------5---------|
G|------------------------------|
D|--------4-4-------------------|
A|-------------------------2-3-4|
E|2-2-------------2-2----5------|


 F#7(#9)
Foxy, yeah,

E|----5-------5-------5---------|
B|----5-------5-------5---------|
G|------------------------------|
D|--------4-4-------------------|
A|----------------4--------2-3-4|
E|2-2---------------2----5------|


F#7(#9)
And you know you are a sweet little lover maker

E|----5-------5-------5---------|
B|----5-------5-------5---------|
G|------------------------------|
D|--------4-4-------------------|
A|-------------------------2-3-4|
E|2-2-------------2-2----5------|


 F#7(#9)
Foxy

E|----5-----------------------5--------|
B|----5-------5h7p5h7p5-------5--------|
G|-------------------------------------|
D|--------4-4--------------------------|
A|--------------------------------2-3-4|
E|2-2---------------------2-2----5-----|


Refrão:
F#                E
I wanna take you home,haha, yeah

E|---------------|
B|---------------|
G|---------------|
D|-----4-----2h4-|
A|-4h6---2h4-----|
E|---------------|


F#                 E
I won't do you no harm

E|---------------|
B|---------------|
G|---------------|
D|---------------|
A|-2-0-2-2/3-4---|
E|-------------2-|


 F#                   E
You've got to be all mine, all mine

E|----------------|
B|----------------|
G|----------------|
D|-----4-6p4----4-|
A|-4/6-------6--4-|
E|--------------2-|


Ooh Foxy Lady


E|--------------------------------|
B|-12b14--10~--12b14--10~~--------|
G|--------------------------11\2--|
D|--------------------------------|
A|--------------------------------|
E|--------------------------------|


Intro 2:
                 Foxy,

   F#7(#9)
E|----5-------5-------5----------|
B|----5-------5-------5----------|
G|-------------------------------|
D|--------4-4--------------------|
A|--------------------------2-3-4|
E|2-2-------------2-2-----5------|


                 Foxy,

   F#7(#9)
E|----5-------5-------5---------0---2p0-----|
B|----5-------5-------5-----1h2---2-----2/4-|
G|------------------------------------------|
D|--------4-4-------------------------------|
A|------------------------------------------|
E|2-2-------------2-2-----------------------|


Verso 2:
 F#7(#9)
Now-a I see you come down on the scene

E|----5-------5-------5---------|
B|----5-------5-------5---------|
G|------------------------------|
D|--------4-4-------------------|
A|-------------------------2-3-4|
E|2-2-------------2-2----5------|


Oh Foxy

E|----5-------5-------5---------|
B|----5-------5-------5---------|
G|------------------------------|
D|--------4-4-------------------|
A|-------------------------2-3-4|
E|2-2--------------2-2---5------|


You make me wanna get up and-a scream

E|----5-------5-------5---------|
B|----5-------5-------5---------|
G|------------------------------|
D|--------4-4-------------------|
A|-------------------------2-3-4|
E|2-2-------------2-2----5------|


Foxy, oh baby listen now

E|----5-----------------------5--------|
B|----5-------5h7p5h7p5-------5--------|
G|-------------------------------------|
D|--------4-4--------------------------|
A|--------------------------------2-3-4|
E|2-2---------------------2-2----5-----|


Refrão 2:
F#               E
I've made up my mind,

E|---------------|
B|---------------|
G|---------------|
D|-----4-----2h4-|
A|-4h6---2h4-----|
E|---------------|


F#                        E
I'm tired of wasting all my precious time

E|---------------|
B|---------------|
G|---------------|
D|---------------|
A|-2-0-2-2/3-4---|
E|-------------2-|


 F#                   E
You've got to be all mine, all mine

E|----------------|
B|----------------|
G|----------------|
D|-----4-6p4----4-|
A|-4/6-------6--4-|
E|--------------2-|


Ooh Foxy Lady


E|--------------------------------|
B|-5/12--10~--5/12--10~~----------|
G|--------------------------11\2--|
D|--------------------------------|
A|--------------------------------|
E|--------------------------------|


(Solo)

Refrão Final:
F#                E
I wanna take you home,haha, yeah

E|---------------|
B|---------------|
G|---------------|
D|-----4-----2h4-|
A|-4h6---2h4-----|
E|---------------|


F#                 E
I won't do you no harm

E|---------------|
B|---------------|
G|---------------|
D|---------------|
A|-2-0-2-2/3-4---|
E|-------------2-|


 F#                   E
You've got to be all mine, all mine

E|----------------|
B|----------------|
G|----------------|
D|-----4-6p4----4-|
A|-4/6-------6--4-|
E|--------------2-|


Ooh Foxy Lady

Comentários 1

  • ikira ikira: Postado em 15/03/2012 22:56

    Cifra modafocas não faz aulas pra hendrix

Composição: Jimi Hendrix / Mac Gayden / Todd Chapman
Esse não é o compositor? Avise-nos.
Exibir acordes »
publicidade
fechar