Meu Ex Amor, Deixa Eu Chorar

João Bosco e Vinícius

 João Bosco e Vinícius
Tom: A
		
(intro base) E  B  A  E B7

(intro solo)


E|-------------------------------------------------------
B|-------------------------------------------------------
G|-------------------------------------------------------
D|-----------------------------------2-1-----------------
A|-2-2~4-2--------2-2~4-2---2-------2---2-2/4-2-0--------
E|---------0-4------------4---4-2------------------------





E|-------------------------------------------------------
B|-------------------------------------------------------
G|-------------------------------------------------------
D|---------1-2-------------------------------------------
A|-2-4-2-4-----------------------------------------------
E|--------------4-5-7------------------------------------



E
Eu tive um amor
            B
Amor tão bonito
              A
Daqueles que matam
               E     B7
Com sabor de saudade
E
Meu ex-amor
                        B
Tem coisas que a gente não esquece
                A
Mas você não merece
       E    E7
Tanta dor
            A
Foi bonito demais
             E
Mas eu estou sozinho
             A
Foi rico de amor
  B             E
Hoje estou tão só

(intro base) E  B  A  E B7



E|-------------------------------------------------------
B|-------------------------------------------------------
G|-------------------------------------------------------
D|-----------------------------------2-1-----------------
A|-2-2~4-2--------2-2~4-2---2-------2---2-2/4-2-0--------
E|---------0-4------------4---4-2------------------------





E|-------------------------------------------------------
B|-------------------------------------------------------
G|-------------------------------------------------------
D|---------1-2-------------------------------------------
A|-2-4-2-4-----------------------------------------------
E|-------------4-5-7-------------------------------------



            A
Foi bonito demais
             E
Mas eu estou sozinho
             A   B
Foi rico de amor
               E
Hoje estou tão só!


(intro) A F#m D Bm7 E



E|-----------------------------------------------------------------------------------------|
B|-----------------------------------------------------------2h3---------------------------|
G|--------------------------------------------------------2-4---4----4-2-1-----------------|
D|------------------------------------------------0-2-2--4----------4------4-2-------------|
A|--2/4-4-4--2-0--2/4---2/4-4-4-2-0-2/4--2/4-4-4-4-----------------------------------------|
E|-----------------------------------------------------------------------------------------|



                   A			     F#m
Quero ver quem não chora, quando o amor vai embora
		 D	     		   E
Quero ver quem não chora, quando o amor vai embora

	  A			F#m
Sem dizer adeus, quero ver quem não chora
	  D   		     E
Sem dizer adeus, meu amor foi embora, foi foi foi foi

(refrão)
A	    F#m	        D		       Bm7		         E
To sofrendo, to chorando, to sofrendo e sem ela eu não vou suportar,
A	   F#m	       D		      Bm7	                    E
To sofrendo, to chorando, to sofrendo mas não vou deixar de gostar, deixa eu chorar

( A F#m D Bm7 E )

               A			F#m		  D  			E
Não teve dó de mim, não pensou no que fez, mas se ela voltar, vou querer outra vez
              A		         F#m		    	  D  			       E
Eu não to nem aí, podem falar de mim, o que eu sinto por ela, sei que não vai ter fim, não não não não

(refrão 2x)
6.268 exibições

Comentários 0

Consegui tocarAinda não conseguiram tocar essa música. Seja o primeiro!
    Não consegui tocar
    Exibir acordes »
    publicidade
    fechar